Oops, an error
Loading. Please wait.

Ballad Of Miss Kate Black Tab

version 1
version 1

Intro

Whole song

6,920 views 1 this week
4 commentsread comments
1 2 3 4 5
x 3
add to favorites
launch autoscroll
font size
0
reset
how to read this tab
guitar tuner
Autoscroll
slow
fast
+/-
esc
set tempo
stop
Difficulty
Capo
intermediate
3rd fret
Matt Costa - The Ballad of Miss Kate (intro) tab
Tabbed by TheBigKevDogg (cause the other tabs were pretty bad)

Capo 3 (his guitarist stays capo 3 the whole song, matt plays it open)

E |------------------------------10/7-----------------|
B |-------3h5-8-5-3h5-----10/8-0--8/5-0---------------|
G |---2/4------------------9/7------------------------|
D |---------------------------------------------------|
A |---------------------------------------------------|
E |-0-------------------0-----------------------------|

E |---------------------------------0-----------------|
B |-------5p0-----------------------------------------|
G |---2/4-----------------------2/4---7/9-9\7---------|
D |-----------5p2---------2-----------5/7-7\5---------|
A |--------------5p2----------------------------------|
E |-0---------------5b6r5-----0-----------------------|
Suggest correction
Give kudos to tab author, rate the tab!
1 2 3 4 5
comments
print report bad tab
4 comments total. Showing first comments.
+1 reply
marcelaguiar 629 May 29, 2008 06:05 AM

Wow that's perfect. I saw him in concert 5 times, and every time he played with a spesially tuned guitar. But, the electric guitarist(I'm forgetting his name) played the intro on a regularly tuned guitar. So this tab is 5 stars.

0 reply
marcelaguiar 629 Jun 24, 2008 06:26 PM

His name is Mitch...^^ now i remember.....I'm tabbing up a better version of this song right now...It's so AWESOME!!!

0 reply
marcelaguiar 629 Jul 08, 2008 01:22 PM

SOrry this isnt perfect it actually sucks. Were you even listening to the song when you tabbed this??? It's out og key.

guest
Wanna post a correction for this tab? Suggest correction