Oops, an error
Loading. Please wait.

Behind The Moon Tab

version 5
version 5

Interactive

2,748 views 1 this week
no commentswrite comment
1 2 3 4 5
accurate
x 3
add to favorites
launch autoscroll
font size
0
reset
how to read this tab
guitar tuner
Tab Pro tools
  • play this tab
  • loop segment
  • change instrument
  • show fretboard
  • metronome
×
Best way to learn
"Behind The Moon"
Autoscroll
slow
fast
+/-
esc
set tempo
stop
Contributor
----------------------------------------------------------------------------
-			Behind The Moon - Matt Costa                       
-----------------------------------------------------------------------------
Tabbed by: caldog
Email: frog_on_the_moon@hotmail.com
Band Page: www.myspace.com/instantkarma99
Standard Tuning E A D G B e

Intro
e---0-0-0-0---0---0-|
B---0-0-0-0---0---0-|
G---0-0-0-0---0---0-|
D---2-2-2-2---2---2-| x4
A---2-2-2-2---2---2-|
E-0-0-0-0-0-3-0-3-0-|


Verse Riff
e --------------------------------------------------------------|
B --------------------------------------------------------------|
G --------------------------------------------------------------|
D ------------------------2-------------------------------------|
A ----------------0---2------2--0---------------------2--0------|
E 0---2-----3------------------------3----0--3----0---------3--2|
  

(Verse Riff)         						(Intro)
I would shine just like a million suns if you would be my baby
(Verse Riff)						(Intro)
I'll be in your life again so baby, baby just say maybe

C           G       D               Em
Now here I come to dance around the sun
C        Em            D               Em
I've been oh so blue stuck behind the moon
C          G   D             Em
Now let me in back where we begin
C           Em                D
And let me hold you like the way
 (Intro)
I used to do

(Verse Riff)         						   (Intro)
All the stars point me to you and lately they just drive me crazy
(Verse Riff)						(Intro)
A universe can be so cruel so baby, baby be my lady

C           G       D               Em
Now here I come to dance around the sun
C        Em            D               Em
I've been oh so blue stuck behind the moon
C          G   D             Em
Now let me in back where we begin
C           Em                D    
And let me hold you like the way

C           Em                D
And let me hold you like the way    

 (Intro)
I used to do


Bridge

(Intro x2)  C  D
(Intro x1)  C  D
(Intro x4)
(Verse)
(Intro x2)
(Verse)
(Intro x2)

 Solo
    C       G D       Em   C     Em       D         Em  
e -/8-8-7-5----------------/8-8-7-10-8-7--5-5-5h7p5----------------|
B ----------8---------------------------------------8--------------|
G -----------/7-7-7h9p7-9~~~---------------------------------------|
D -----------------------------------------------------------------|
A -----------------------------------------------------------------|
E -----------------------------------------------------------------|
     
   C      G  D         Em       C     Em        D            Em  
e -/8-8-7----------------------/8-8-7-10-8-7~~~-5~~~~-3--5--3------|
B --------8---------------------------------------------------5~~~~|
G -----------/7-7-7h9p7-9~~~---------------------------------------|
D -----------------------------------------------------------------|
A -----------------------------------------------------------------|
E -----------------------------------------------------------------|

(Verse Riff)         						(Intro)
I would shine just like a million suns if you would be my baby
(Verse Riff)						(Intro)
I'll be in your life again so baby, baby just say maybe

C           G       D               Em
Now here I come to dance around the sun
C        Em            D               Em
I've been oh so blue stuck behind the moon
C          G   D             Em
Now let me in back where we begin
C           Em                D    
And let me hold you like the way

C           Em                D      x3
And let me hold you like the way    

 (Intro)        D   x3
I used to do
 (Intro)       Em
I used to do
comments
We did not receive enough feedback on this tab! Please rate:
print report bad tab
1 2 3 4 5
I want to post or [tab]
guest
You may want to rate the tab now too:
select rating
Please do not post tabs as comments. Select "correction" instead!