Oops, an error
Loading. Please wait.

Behind The Moon Tab

version 6
version 6

Interactive

4,639 views 1 this week
2 commentsread comments
1 2 3 4 5
x 6
add to favorites
launch autoscroll
font size
0
reset
how to read this tab
guitar tuner
Autoscroll
slow
fast
+/-
esc
set tempo
stop
Help us to improve Ultimate-Guitar.com Take our survey!
×
Difficulty
intermediate
This song is amazing.
Every tab is wrong for this song on this site except for this one.
So im going to help you fellas out on this one.

Intro:
        d d u d 
e -----------------------------|
B -----------------------------|
G -----------------------------|  (4x)
D ------2-2-2-2----------------|
A ------2-2-2-2----------------|
E ---0--0-0-0-0--3b--0--3b--0--|

e ------------------------------------------------------------------|
B ------------------------------------------------------------------|
G ------------------------------------------------------------------|
D ---------------------------2--------------------------------------|
A -------------------0---2------2--0---------------------2--0-------|
E ---0---2-----3------------------------3----0--3----0---------3--0-|
     I would shine just like a million suns if you would be my baby

        d d u d 
e -----------------------------|
B -----------------------------|
G -----------------------------|  (2x)
D ------2-2-2-2----------------|
A ------2-2-2-2----------------|
E ---0--0-0-0-0--3b--0--3b--0--|

e ----------------------------------------------------------|
B ----------------------------------------------------------|
G ----------------------------------------------------------|
D ------------------------2---------------------------------|
A ----------------0---2-------2--0-------------2---0--------|
E ---0----2---3--------------------3--0--3--0----------3--0-|
     I'll be in your life again so baby, baby just say maybe

        d d u d 
e -----------------------------|
B -----------------------------|
G -----------------------------|  (2x)
D ------2-2-2-2----------------|
A ------2-2-2-2----------------|
E ---0--0-0-0-0--3b--0--3b--0--|

C           G       D               Em
Now here I come to dance around the sun
C        Em            D               Em
I've been oh so blue stuck behind the moon
C          G   D             Em
Now let me in back where we begin
C           Em                D
And let me hold you like the way

I used to do
 
       d d u d 
e -----------------------------|
B -----------------------------|
G -----------------------------|  (4x)
D ------2-2-2-2----------------|
A ------2-2-2-2----------------|
E ---0--0-0-0-0--3b--0--3b--0--|

C           G       D               Em
Now here I come to dance around the sun
C        Em            D               Em
I've been oh so blue stuck behind the moon
C          G   D             Em
Now let me in back where we begin
C           Em                D
And let me hold you like the way

I used to do

e --------------------------------------------------------------------|
B --------------------------------------------------------------------|
G --------------------------------------------------------------------|
D ---------------------------2----------------------------------------|
A -------------------0---2------2--0----------------------2---0-------|
E ---0----2-----3----------------------3---0----3---0------------3---0|
     All the stars point me to you and lately they just drive me crazy
 
        d d u d 
e -----------------------------|
B -----------------------------|
G -----------------------------|  (2x)
D ------2-2-2-2----------------|
A ------2-2-2-2----------------|
E ---0--0-0-0-0--3b--0--3b--0--|

e -------------------------------------------------------|
B -------------------------------------------------------|
G -------------------------------------------------------|
D ----------------------2--------------------------------|
A ---------------0---2------2---0-------------2--0-------|
E ---0--2---3----------------------3--0--3--0-------3--0-|
     A universe can be so cruel so baby, baby be my lady

        d d u d 
e -----------------------------|
B -----------------------------|
G -----------------------------|  (2x)
D ------2-2-2-2----------------|
A ------2-2-2-2----------------|
E ---0--0-0-0-0--3b--0--3b--0--|

C           G       D               Em
Now here I come to dance around the sun
C        Em            D               Em
I've been oh so blue stuck behind the moon
C          G   D             Em
Now let me in back where we begin
C           Em                D
And let me hold you like the way

I used to do

        d d u d 
e -----------------------------|
B -----------------------------|
G -----------------------------|  (6x)
D ------2-2-2-2----------------|
A ------2-2-2-2----------------|
E ---0--0-0-0-0--3b--0--3b--0--|

e ------------------------------------------------------------------|
B ------------------------------------------------------------------|
G ------------------------------------------------------------------|
D ---------------------------2--------------------------------------|
A -------------------0---2------2--0---------------------2--0-------|
E ---0---2-----3------------------------3----0--3----0---------3--0-|

        d d u d 
e -----------------------------|
B -----------------------------|
G -----------------------------|  (2x)
D ------2-2-2-2----------------|
A ------2-2-2-2----------------|
E ---0--0-0-0-0--3b--0--3b--0--|

e ------------------------------------------------------------------|
B ------------------------------------------------------------------|
G ------------------------------------------------------------------|
D ---------------------------2--------------------------------------|
A -------------------0---2------2--0---------------------2--0-------|
E ---0---2-----3------------------------3----0--3----0---------3--0-|

        d d u d 
e -----------------------------|
B -----------------------------|
G -----------------------------|  (2x)
D ------2-2-2-2----------------|
A ------2-2-2-2----------------|
E ---0--0-0-0-0--3b--0--3b--0--|

 solo
e --8-8-7-5-----------------8-8-7-10-8-7--5-5-5h7p5---|
B ----------8---------------------------------------8-|
G ------------7-7-7h9p7-9~~~--------------------------| 
D ----------------------------------------------------|
A ----------------------------------------------------|
E ----------------------------------------------------|
 continue
e --8-8-7-5-----------------|
B ----------8---------------|
G ------------7-7-7h9p7-9~~~| 
D --------------------------|
A --------------------------|
E --------------------------|
 continue
e ---8-8-7-10-8-7~~~-5~~~--3--5--3--------|
B ----------------------------------5~~~--|
G ----------------------------------------|
D ----------------------------------------|
A ----------------------------------------|
E ----------------------------------------|

       d d u d 
e -----------------------------|
B -----------------------------|
G -----------------------------|  (4x)
D ------2-2-2-2----------------|
A ------2-2-2-2----------------|
E ---0--0-0-0-0--3b--0--3b--0--|

e ------------------------------------------------------------------|
B ------------------------------------------------------------------|
G ------------------------------------------------------------------|
D ---------------------------2--------------------------------------|
A -------------------0---2------2--0---------------------2--0-------|
E ---0---2-----3------------------------3----0--3----0---------3--0-|
     I would shine just like a million suns if you would be my baby

       d d u d 
e -----------------------------|
B -----------------------------|
G -----------------------------|  (2x)
D ------2-2-2-2----------------|
A ------2-2-2-2----------------|
E ---0--0-0-0-0--3b--0--3b--0--|

e ----------------------------------------------------------|
B ----------------------------------------------------------|
G ----------------------------------------------------------|
D ------------------------2---------------------------------|
A ----------------0---2-------2--0-------------2---0--------|
E ---0----2---3--------------------3--0--3--0----------3--0-|
     I'll be in your life again so baby, baby just say maybe

       d d u d 
e -----------------------------|
B -----------------------------|
G -----------------------------|  (2x)
D ------2-2-2-2----------------|
A ------2-2-2-2----------------|
E ---0--0-0-0-0--3b--0--3b--0--|

C           G       D               Em
Now here I come to dance around the sun
C        Em            D               Em
I've been oh so blue stuck behind the moon
C          G   D             Em
Now let me in back where we begin
C           Em                D
And let me hold you like the way
C           Em                D
Now let me hold you like the way
C           Em                D
Now let me hold you like the way

       d d u d 
e -----------------------------|
B -----------------------------|
G -----------------------------|
D ------2-2-2-2----------------|
A ------2-2-2-2----------------|
E ---0--0-0-0-0--3b--0--3b--0--|

c         Em
I used to do

       d d u d 
e -----------------------------|
B -----------------------------|
G -----------------------------|
D ------2-2-2-2----------------|
A ------2-2-2-2----------------|
E ---0--0-0-0-0--3b--0--3b--0--|

c         Em
I used to do

       d d u d 
e -----------------------------|
B -----------------------------|
G -----------------------------|
D ------2-2-2-2----------------|
A ------2-2-2-2----------------|
E ---0--0-0-0-0--3b--0--3b--0--|

c         Em
I used to do

       d d u d 
e -----------------------------|
B -----------------------------|
G -----------------------------|
D ------2-2-2-2----------------|
A ------2-2-2-2----------------|
E ---0--0-0-0-0--3b--0--3b--0--|

c         Em
I used to do

       d d u d 
e -----------------------------|
B -----------------------------|
G -----------------------------|
D ------2-2-2-2----------------|
A ------2-2-2-2----------------|
E ---0--0-0-0-0--3b--0--3b--0--|




There you go fellas.
ENJOY!
Suggest correction
comments
print report bad tab
2 comments total.
0 reply
marcelaguiar 609 Apr 09, 2008 09:49 AM

whats with the solo?

0 reply
Iamcoolishist 10 Jul 31, 2009 06:23 PM

it should be " I would shine just like a million sun if you would just *love me baby."

guest
You may want to rate the tab now too:
select rating
Wanna post a correction for this tab? Suggest correction