Oops, an error
Loading. Please wait.

Behind The Moon Tab

version 7
version 7

Interactive

12,077 views 4 this week
5 commentsread comments
1 2 3 4 5
excellent!
x 14
add to favorites
launch autoscroll
font size
0
reset
how to read this tab
guitar tuner
Tab Pro tools
  • play this tab
  • loop segment
  • change instrument
  • show fretboard
  • metronome
×
Best way to learn
"Behind The Moon"
Autoscroll
slow
fast
+/-
esc
set tempo
stop
Contributor
                                Behind The Moon
                                  Matt Costa
                                Songs We Sing


Some notes: . = muted
             / = slide up
             \ = slide down
             p = pull-off
             h = hammer-on

 (theres two guitars) You can get away by just playing Guitar 1
                                                      (the top one)

  Guitar 1|----  <----
          |
          |
  Guitar 2|----

Intro:
e||--------------------||
B||--------------------||
G||--------------------||
D||---2--2-2-2---------||
A||---2--2-2-2-2-2-2-2-||
E||-0-0--------3-0-3-0-||
 |  . .  . . . . . . .  |  x4
 |                      |
e||--------------------||
B||--------------------||
G||--------------------||
D||---2--2-2-2---2---2-||
A||-2-2--2-2-2---2---2-||
E||-0-0--0-0-0-3-0-3-0-||


Verse 1:
e|-----------------------------------------------------------------------|
B|------------------------------------0------------------0---------------|
G|------------------------------------0------------------0---------------|
D|------------2-----------------------2--2-2-2-----------2--2-2-2--------|
A|--------0-2---2-0---------2-0-------2--2-2-2---2---2---2--2-2-2---2---2|
E|--0-2-3-----------3-0-3-0-----3-2-0-0--------3-0-3-0---0--------3-0-3-0|
 |                                                                       |
 |                                                                       |x2
e|------------------------------------0------------------0---------------|
B|------------------------------------0------------------0---------------|
G|------------------------------------0------------------0---------------|
D|------------2-----------------------2----------2---2---2----------2---2|
A|--------0-2---2-0---------2-0-------2--------2-2-2-2-2-2--------2-2-2-2|
E|--0-2-3-----------3-0-3-0-----3-2-0-0--------3-0-3-0-0-0--------3-0-3-0|

Chorus:

 C          G       D                Em
 Now here I come to dance around the sun
 C         G           D                Em
 I've been oh so blue, stuck behind the moon
 C          G   D              Em
 Now let me in, back where we begin
 C          G                 D
 And let me hold you like the way,

      e||--------------------||
      B||--------------------||
      G||--------------------||
      D||---2--2-2-2---------||
      A||---2--2-2-2-2-2-2-2-||
      E||-0-0--------3-0-3-0-||
       |  . .  . . . . . . .  |  x4
       |                      |
      e||--------------------||
      B||--------------------||
      G||--------------------||
      D||---2--2-2-2---2---2-||
      A||-2-2--2-2-2---2---2-||
      E||-0-0--0-0-0-3-0-3-0-||
I used to do.        Oo  Oo

Verse 2:
e||------------------------------------------------------------------------|
B||------------------------------------0------------------0----------------|
G||------------------------------------0------------------0----------------|
D||------------2-----------------------2--2-2-2-----------2--2-2-2---------|
A||--------0-2---2-0---------2-0-------2--2-2-2---2---2---2--2-2-2---2---2-|
E||--0-2-3-----------3-0-3-0-----3-2-0-0--------3-0-3-0---0--------3-0-3-0-|
 |
 |
e||------------------------------------0------------------0----------------|
B||------------------------------------0------------------0----------------|
G||------------9-----------------------0------------------0----------------|
D||--------7-9---9-7---------9-7-------2------------------2----------2---2-|
A||--7-9-10---------10-7-10-7---10-9\--2------------------2--------2-2-2-2-|
E||------------------------------------0------------------0--------3-0-3-0-|

-----------------------------------------------------------------------||
------------------------------------0------------------0---------------||
------------------------------------0------------------0---------------||
------------2-----------------------2--2-2-2-----------2--2-2-2--------||
--------0-2---2-0---------2-0-------2--2-2-2---2---2---2--2-2-2---2---2||
--0-2-3-----------3-0-3-0-----3-2-0-0--------3-0-3-0---0--------3-0-3-0||
                                                                       ||
                                                                       ||
------------12----------------------0------------------0---------------||
--------1012--1210--------1210------0------------------0---------------||
--9-1112----------129-129-----1211\-0------------------0---------------||
------------------------------------2----------2---2---2----------2---2||
------------------------------------2--------2-2-2-2-2-2--------2-2-2-2||
------------------------------------0--------3-0-3-0-0-0--------3-0-3-0||


Chorus:
 C          G       D                Em
 Now here I come to dance around the sun
 C         G           D                Em
 I've been oh so blue, stuck behind the moon
 C          G   D              Em
 Now let me in, back where we begin
 C          G                 D
 And let me hold you like the way,

      e||--------------------||
      B||--------------------||
      G||--------------------||
      D||---2--2-2-2---------||
      A||---2--2-2-2-2-2-2-2-||
      E||-0-0--------3-0-3-0-||
       |  . .  . . . . . . .  |  x2
       |                      |
      e||--------------------||
      B||--------------------||
      G||--------------------||
      D||---2--2-2-2---2---2-||
      A||-2-2--2-2-2---2---2-||
      E||-0-0--0-0-0-3-0-3-0-||
I used to do.        Oo  Oo


      C          D         Em
 e|---0--0-0-0---2--2-2-2--0----------------|
 B|---1--1-1-1---3--3-3-3--0----------------|
 G|---0--0-0-0---2--2-2-2--0----------------| (Guitars 1 & 2)
 D|---2--2-2-2-0-0--0-0-0--2--2-2-2---------|
 A|-3-3--3-3-3-------------2--2-2-2-2-2-2-2-|
 E|------------------------0--0-0-0-3-0-3-0-|
  |                                 . . . . |
  |                                         | x2
 e|---0----------2---------0----------------|
 B|---1----------3---------0----------------|
 G|---0----------2---------0----------------|
 D|---2----------0---------2----------------| (Guitar 3: Distorted and
 A|---3--------------------2----------------|            fades in on each
 E|------------------------0----------------|            chord)


e|--------------------|
B|--------------------|
G|--------------------|
D|---2--2-2-2---------|
A|---2--2-2-2-2-2-2-2-|
E|-0-0--------3-0-3-0-|
 | . .  . . . . . . . |
 |                    |
e|--------------------|
B|--------------------|
G|--------------------|
D|---2--2-2-2---2---2-|
A|-2-2--2-2-2---2---2-|
E|-0-0--0-0-0-3-0-3-0-|


  (1:41) A third guitar(electric w/ dist.) will come in. So all in octaves you will hear
acoustics, 1 electric, and a piano (which isnt tabbed).

  Acoustic (Guitar 1)
e|----------------------------------------------------------------------||
B|-----------------------------------0------------------0---------------||
G|-----------------------------------0------------------0---------------||
D|-----------2-----------------------2--2-2-2-----------2--2-2-2--------||
A|-------0-2---2-0---------2-0-------2--2-2-2---2---2---2--2-2-2---2---2||
E|-0-2-3-----------3-0-3-0-----3-2-0-0--------3-0-3-0---0--------3-0-3-0||
 |                                                                      ||
 |Acoustic (Guitar 2)                                                   ||
e|-----------12----------------------0------------------0---------------||
B|-------1012--1210--------1210------0------------------0---------------||
G|-9-1112----------129-129-----1211\-0------------------0---------------||
D|-----------------------------------2------------------2---------------||
A|-----------------------------------2------------------2---------------||
E|-----------------------------------0------------------0---------------||
 |                                                                      ||
 |Electric                                                              ||
e|-----------------------------------0------------------0---------------||
B|-----------------------------------0------------------0---------------||
G|-----------------------------------0------------------0---------------||
D|-----------2-----------------------2------------------2---------------||
A|-------0-2---2-0---------2-0-------2------------------2---------------||
E|-0-2-3-----------3-0-3-0-----3-2-0-0------------------0---------------||

  Acoustic (Guitar 1)
e|----------------------------------------------------------------------||
B|-----------------------------------0------------------0---------------||
G|-----------------------------------0------------------0---------------||
D|-----------2-----------------------2--2-2-2-----------2--2-2-2--------||
A|-------0-2---2-0---------2-0-------2--2-2-2---2---2---2--2-2-2---2---2||
E|-0-2-3-----------3-0-3-0-----3-2-0-0--------3-0-3-0---0--------3-0-3-0||
 |                                                                      ||
 |Acoustic (Guitar 2)                                                   ||
e|-----------12----------------------0------------------0---------------||
B|-------1012--1210--------1210------0------------------0---------------||
G|-9-1112----------129-129-----1211\-0------------------0---------------||
D|-----------------------------------2------------------2---------------||
A|-----------------------------------2------------------2---------------||
E|-----------------------------------0------------------0---------------||
 |                                                                      ||
 |Electric                                                              ||
e|-----------------------------------0------------------0---------------||
B|-----------------------------------0------------------0---------------||
G|-----------9-----------------------0------------------0---------------||
D|-------7-9---9-7---------9-7-\5\-0-2------------------2---------------||
A|-7-9-10----------107-107-----------2------------------2---------------||
E|-----------------------------------0------------------0---------------||

Lead/Melody:

  Acoustic (Guitar 1 & rhythm track)
e|---x---x---3---3---2---2-----0---0---x---x----3---3---2---2-----0---0-|
B|---1---1---3---3---3---3-----0---0---1---1----3---3---3---3-----0---0-|
G|---0---0---0---0---2---2-----0---0---0---0----0---0---2---2-----0---0-|
D|---2---2---0---0-0-0-0-0-----2---2---2---2----0---0-0-0-0-0-----2---2-|
A|-3-3-3-3---x---x-------------2---2-3-3-3-3----x---x-------------2---2-|
E|---------3-3-3-3-----------0-0-0-0----------3-3-3-3-----------0-0-0-0-|
 |
 |Acoustic (Guitar 2)
e|-8-8-7-5---------------------------8-8-7-7/10-8-7---5-5-5h7p5---------|
B|---------8-------3-3-3h5p3-5----------------------------------8-------|
G|----------------------------------------------------------------------|
D|----------------------------------------------------------------------|
A|----------------------------------------------------------------------|
E|----------------------------------------------------------------------|
 |
 |Electric
e|----------------------------------------------------------------3-2-0-|
B|----------------------------------------------------------------------|
G|-5-5-4-2-0-------------------------5-5-4-4/7--5-4---2-2-2h4p2-0-------|
D|-----------------0-0-0h2p0-2------------------------------------------|
A|----------------------------------------------------------------------|
E|----------------------------------------------------------------------|


  Acoustic
e|---x---x---3---3---2---2-----0---0---x---x-----3---3---2-|
B|---1---1---3---3---3---3-----0---0---1---1-----3---3---3-|
G|---0---0---0---0---2---2-----0---0---0---0-----0---0---2-|
D|---2---2---0---0-0-0-0-0-----2---2---2---2-----0---0-0-0-|
A|-3-3-3-3---x---x-------------2---2-3-3-3-3-----x---x-----|
E|---------3-3-3-3-----------0-0-0-0-----------3-3-3-3-----|
 |
 |Acoustic
e|---8-8-7-----------------------------8-8-7-/10-8-7---5---|
B|---------8-------3-3-3h5p3-5-----------------------------|
G|---------------------------------------------------------|
D|---------------------------------------------------------|
A|---------------------------------------------------------|
E|---------------------------------------------------------|
 |
 |Electric
e|---------------------------------------------------------|
B|---------------------------------------------------------|
G|---5-5-4-----------------------------5-5-4-4/7-5-4---2---|
D|---------5-------0-0-0h2p0-2-----------------------------|
A|---------------------------------------------------------|
E|---------------------------------------------------------|

  Acoustic
e|--2--2--2-----2---2-2-2--------------------|
B|--3--3--3-----3---3-3-3--------------------|
G|--2--2--2-----2---2-2-2--------------------|
D|--0--0--0--0--0---0-0-0---2--2-2-2---2---2-|
A|--------------------------2--2-2-2---2---2-|
E|------------------------0-0--0-0-0-3-0-3-0-|
 |
 |Acoustic
e|-------------------------------------------|
B|-------------------------------------------|
G|-----------------12-14-12------------------|
D|--------------------------14---------------|
A|-------------------------------------------|
E|-------------------------------------------|
 |
 |Electric
e|-------------------------------------------|
B|-------------------------------------------|
G|--------------------2----------------------|
D|-----------------5-----5--2----------------|
A|-------------------------------------------|
E|-------------------------------------------|


e||--------------------||
B||--------------------||
G||--------------------||
D||---2--2-2-2---------||
A||---2--2-2-2-2-2-2-2-||
E||-0-0--------3-0-3-0-||
 |  . .  . . . . . . . || x3
 |                     ||
e||--------------------||
B||--------------------||
G||--------------------||
D||---2--2-2-2---2---2-||
A||-2-2--2-2-2---2---2-||
E||-0-0--0-0-0-3-0-3-0-||


Verse 3:
e||------------------------------------------------------------------------|
B||------------------------------------0------------------0----------------|
G||------------------------------------0------------------0----------------|
D||------------2-----------------------2--2-2-2-----------2--2-2-2---------|
A||--------0-2---2-0---------2-0-------2--2-2-2---2---2---2--2-2-2---2---2-|
E||--0-2-3-----------3-0-3-0-----3-2-0-0--------3-0-3-0---0--------3-0-3-0-|
 |
 |
e||------------------------------------0------------------0----------------|
B||------------------------------------0------------------0----------------|
G||------------------------------------0------------------0----------------|
D||------------------------------------2------------------2----------2---2-|
A||------------------------------------2------------------2--------2-2-2-2-|
E||------------------------------------0------------------0--------3-0-3-0-|

-----------------------------------------------------------------------||
------------------------------------0------------------0---------------||
------------------------------------0------------------0---------------||
------------2-----------------------2--2-2-2-----------2--2-2-2--------||
--------0-2---2-0---------2-0-------2--2-2-2---2---2---2--2-2-2---2---2||
--0-2-3-----------3-0-3-0-----3-2-0-0--------3-0-3-0---0--------3-0-3-0||
                                                                       ||
                                                                       ||
------------------------------------0------------------0---------------||
------------5-----------------------0------------------0---------------||
--------2-4---4-2---------4-2-------0------------------0---------------||
--2-4-5-----------5-2-5-2-----5-4---2----------2---2---2----------2---2||
------------------------------------2--------2-2-2-2-2-2--------2-2-2-2||
----------------------------------0-0--------3-0-3-0-0-0--------3-0-3-0||


 Chorus:
  C        G        D               Em
  So here I come to dance around the sun
  C         G           D                Em
  I've been oh so blue, stuck behind the moon
  C          G   D              Em
  Now let me in, back where we begin
  C          G                 D
  And let me hold you like the way
  C          G                 D
  And let me hold you like the way
  C          G                 D
  And let me hold you like the way

      e||-----------------------2--222----2--222-||
      B||-----------------------3--333----3--333-||
      G||-----------------------2--222----2--222-||
      D||---2--2-2-2----------0-0--000--0-0--000-||
      A||---2--2-2-2-2-2-2-2---------------------||
      E||-0-0--------3-0-3-0---------------------||
       |  . .  . . . . . . .                      |  x3
       |                                          |
      e||-----------------------2--222----2--222-||
      B||-----------------------3--333----3--333-||
      G||-----------------------2--222----2--222-||
      D||---2--2-2-2---2---2--0-0--000--0-0--000-||
      A||-2-2--2-2-2---2---2---------------------||
      E||-0-0--0-0-0-3-0-3-0---------------------||
I used to do         Oo  Oo


      e||--------------------||
      B||--------------------||
      G||--------------------||
      D||---2--2-2-2---2---2-||
      A||-2-2--2-2-2---2---2-||
      E||-0-0--0-0-0-3-0-3-0-||
I used to do
comments
print report bad tab
5 comments total. Showing first comments.
0 reply
marcelaguiar wrote on September 30 2007, 10:41 am

i also tabbed up songs we sing except as unregistered...so check it out and rate it

0 reply
marcelaguiar wrote on March 19 2008, 09:44 am

oh yeah....s means slide, i completely forgot about the /

0 reply
usedbandage9 wrote on March 23 2008, 10:40 am

whoa this is dead on....good work

I want to post or [tab]
guest
You may want to rate the tab now too:
select rating
Please do not post tabs as comments. Select "correction" instead!