Oops, an error
Loading. Please wait.

Cold December Tab

version 2
version 2

Whole song

14,107 views 6 this week
no commentswrite comment
1 2 3 4 5
accurate
x 6
add to favorites
launch autoscroll
font size
0
reset
how to read this tab
guitar tuner
Tab Pro tools
  • play this tab
  • loop segment
  • change instrument
  • show fretboard
  • metronome
Autoscroll
slow
fast
+/-
esc
set tempo
stop
Contributor
Difficulty
novice
|--------Matt-Costa-------|
|------Cold-December------|x4
|-Tabbed-by--MarcelAguiar-|

   v ^ v ^       v ^ v ^      v ^ v ^
e|---------|   |---------|  |---------|
B|---------|   |---------|  |---------|
G|---------|   |-8-8-8-8-|  |---------|
D|-8-8-8-8-|   |-8-8-8-8-|  |-8-8-8-8-|
A|-8-8-8-8-|x24|-6-6-6-6-|x4|-8-8-8-8-|x16
E|-6-6-6-6-|   |---------|  |-6-6-6-6-|

e|---------|  |---------|   |---------|
B|---------|  |---------|   |---------|
G|-8-8-8-8-|  |---------|   |-8-8-8-8-|
D|-8-8-8-8-|  |-8-8-8-8-|   |-8-8-8-8-|
A|-6-6-6-6-|x4|-8-8-8-8-|x12|-6-6-6-6-|x4
E|---------|  |-6-6-6-6-|   |---------|

e|---------|   |---------|  |-------------|
B|---------|   |---------|  |-------------|
G|---------|   |-8-8-8-8-|  |-10-10-10-10-|
D|-8-8-8-8-|   |-8-8-8-8-|  |-10-10-10-10-|
A|-8-8-8-8-|x12|-6-6-6-6-|x8|-8--8--8--8--|x4
E|-6-6-6-6-|   |---------|  |-------------|

e|---------|  |---------|  |---------|
B|---------|  |---------|  |---------|
G|---------|  |-8-8-8-8-|  |---------|
D|-8-8-8-8-|  |-8-8-8-8-|  |-8-8-8-8-|
A|-8-8-8-8-|x8|-6-6-6-6-|x4|-8-8-8-8-|x16
E|-6-6-6-6-|  |---------|  |-6-6-6-6-|

e|---------|  |---------|
B|---------|  |---------|
G|-8-8-8-8-|  |---------|
D|-8-8-8-8-|  |-8-8-8-8-|
A|-6-6-6-6-|x4|-8-8-8-8-|x4
E|---------|  |-6-6-6-6-|

e|---------|  |---------|  |---------|
B|---------|  |---------|  |---------|
G|---------|  |-8-8-8-8-|  |---------|
D|-8-8-8-8-|  |-8-8-8-8-|  |-8-8-8-8-|
A|-8-8-8-8-|x8|-6-6-6-6-|x4|-8-8-8-8-|x12
E|-6-6-6-6-|  |---------|  |-6-6-6-6-|

e|---------|  |-------------|  |---------|
B|---------|  |-------------|  |---------|
G|-8-8-8-8-|  |-10-10-10-10-|  |-8-8-8-8-|
D|-8-8-8-8-|  |-10-10-10-10-|  |-8-8-8-8-|
A|-6-6-6-6-|x8|-8--8--8--8--|x4|-6-6-6-6-|x4
E|---------|  |-------------|  |---------|

e|-------------|
B|-------------|
G|-10-10-10-10-|
D|-10-10-10-10-|
A|-8--8--8--8--|x14
E|-------------|

e|---------------------------------|
B|---------------------------------|
G|---------------------------------|
D|-8-8-8-8-8-8-8-8-8-8-8-8-8-8-8-8-|
A|-8-8-8-8-8-8-8-8-8-8-8-8-8-8-8-8-|
E|-6-6-6-6-6-6-6-6-6-6-6-6-6-6-6-6-|

e|---------------------------------------------|
B|---------------------------------------------|
G|-8-8-8-8-----------------8-8-8-8-10-10-10-10-|
D|-8-8-8-8-5-5-5-5-5-5-5-5-8-8-8-8-10-10-10-10-|
A|-6-6-6-6-5-5-5-5-5-5-5-5-6-6-6-6-8--8--8--8--|
E|---------3-3-3-3-3-3-3-3---------------------|

e|-------------------------------------|
B|-------------------------------------|
G|-----------------8-8-8-8-10-10-10-10-|
D|-5-5-5-5-5-5-5-5-8-8-8-8-10-10-10-10-|
A|-5-5-5-5-5-5-5-5-6-6-6-6-8--8--8--8--|
E|-3-3-3-3-3-3-3-3---------------------|

e|-------------------------------------|
B|-------------------------------------|
G|-----------------8-8-8-8-10-10-10-10-|
D|-5-5-5-5-5-5-5-5-8-8-8-8-10-10-10-10-|
A|-5-5-5-5-5-5-5-5-6-6-6-6-8--8--8--8--|
E|-3-3-3-3-3-3-3-3---------------------|

e|-------------------------| |-------------|
B|-------------------------| |-------------|
G|-----------------8-8-8-8-| |-10-10-10-10-|
D|-5-5-5-5-5-5-5-5-8-8-8-8-| |-10-10-10-10-|
A|-5-5-5-5-5-5-5-5-6-6-6-6-| |-8--8--8--8--|x4
E|-3-3-3-3-3-3-3-3---------| |-------------|

e|-6~~-|-----------------6-|
B|-8~~-|-------------------|
G|-8~~-|-11p10-------------|
D|-8~~-|-------8---8---8---|
A|-6~~-|---------6---6-----|
E|-----|-------------------|
 Whoaoao

e|---------|  |---------|  |---------|
B|---------|  |---------|  |---------|
G|---------|  |-8-8-8-8-|  |---------|
D|-8-8-8-8-|  |-8-8-8-8-|  |-8-8-8-8-|
A|-8-8-8-8-|x8|-6-6-6-6-|x4|-8-8-8-8-|x16
E|-6-6-6-6-|  |---------|  |-6-6-6-6-|

e|---------|  |---------|  |-----------|
B|---------|  |---------|  |-----------|
G|-8-8-8-8-|  |---------|  |-----------|
D|-8-8-8-8-|  |-8-8-8-8-|  |-8----8----|
A|-6-6-6-6-|x4|-8-8-8-8-|x4|-8----8----|
E|---------|  |-6-6-6-6-|  |-6----6----|

e|---------|  |---------|   |---------|
B|---------|  |---------|   |---------|
G|-8-8-8-8-|  |---------|   |-8-8-8-8-|
D|-8-8-8-8-|  |-8-8-8-8-|   |-8-8-8-8-|
A|-6-6-6-6-|x4|-8-8-8-8-|x12|-6-6-6-6-|x8
E|---------|  |-6-6-6-6-|   |---------|

e|-------------|  |---------|  |---------|
B|-------------|  |---------|  |---------|
G|-10-10-10-10-|  |---------|  |-8-8-8-8-|
D|-10-10-10-10-|  |-8-8-8-8-|  |-8-8-8-8-|
A|-8--8--8--8--|x4|-8-8-8-8-|x8|-6-6-6-6-|x4
E|-------------|  |-6-6-6-6-|  |---------|

e|---------|   |---------|  |---------|
B|---------|   |---------|  |---------|
G|---------|   |-8-8-8-8-|  |---------|
D|-8-8-8-8-|   |-8-8-8-8-|  |-8-8-8-8-|
A|-8-8-8-8-|x16|-6-6-6-6-|x4|-8-8-8-8-|x12
E|-6-6-6-6-|   |---------|  |-6-6-6-6-|

e|---------|  |---------|   |---------|
B|---------|  |---------|   |---------|
G|-8-8-8-8-|  |---------|   |-8-8-8-8-|
D|-8-8-8-8-|  |-8-8-8-8-|   |-8-8-8-8-|
A|-6-6-6-6-|x4|-8-8-8-8-|x12|-6-6-6-6-|x8
E|---------|  |-6-6-6-6-|   |---------|

e|-------------|  |---------|  |------------|
B|-------------|  |---------|  |------------|
G|-10-10-10-10-|  |-8-8-8-8-|  |10-10-10-10-|
D|-10-10-10-10-|  |-8-8-8-8-|  |10-10-10-10-|
A|-8--8--8--8--|x4|-6-6-6-6-|x4|8--8--8--8--|x14
E|-------------|  |---------|  |------------|

e|---------------------------------|
B|---------------------------------|
G|---------------------------------|
D|-8-8-8-8-8-8-8-8-8-8-8-8-8-8-8-8-|
A|-8-8-8-8-8-8-8-8-8-8-8-8-8-8-8-8-|
E|-6-6-6-6-6-6-6-6-6-6-6-6-6-6-6-6-|

e|---------------------------------------------|
B|---------------------------------------------|
G|-8-8-8-8-----------------8-8-8-8-10-10-10-10-|
D|-8-8-8-8-5-5-5-5-5-5-5-5-8-8-8-8-10-10-10-10-|
A|-6-6-6-6-5-5-5-5-5-5-5-5-6-6-6-6-8--8--8--8--|
E|---------3-3-3-3-3-3-3-3---------------------|

e|-------------------------------------|
B|-------------------------------------|
G|-----------------8-8-8-8-10-10-10-10-|
D|-5-5-5-5-5-5-5-5-8-8-8-8-10-10-10-10-|
A|-5-5-5-5-5-5-5-5-6-6-6-6-8--8--8--8--|
E|-3-3-3-3-3-3-3-3---------------------|

e|-------------------------------------|
B|-------------------------------------|
G|-----------------8-8-8-8-10-10-10-10-|
D|-5-5-5-5-5-5-5-5-8-8-8-8-10-10-10-10-|
A|-5-5-5-5-5-5-5-5-6-6-6-6-8--8--8--8--|
E|-3-3-3-3-3-3-3-3---------------------|

e|-------------------------| |-------------|
B|-------------------------| |-------------|
G|-----------------8-8-8-8-| |-10-10-10-10-|
D|-5-5-5-5-5-5-5-5-8-8-8-8-| |-10-10-10-10-|
A|-5-5-5-5-5-5-5-5-6-6-6-6-| |-8--8--8--8--|x4
E|-3-3-3-3-3-3-3-3---------| |-------------|

e|-6~~6~~6~~6~~-|-------------6-----|
B|-8~~8~~8~~8~~-|-------------6-----|
G|-8~~8~~8~~8~~-|-11p10-------7-----|
D|-8~~8~~8~~8~~-|-------8---8-8-----|
A|-6~~6~~6~~6~~-|---------6---8-----|
E|--------------|-------------6-----|

    You should have figured out the whole song in the first minute but I tabbed out the 
thing. I did not tab the back-up guitar, which I doubt anyone wants to play anyways.
comments
print report bad tab
I want to post or [tab]
guest
You may want to rate the tab now too:
select rating
Please do not post tabs as comments. Select "correction" instead!