Oops, an error
Loading. Please wait.

Heart Of Stone Tab

11,270 views 6 this week
no commentswrite comment
1 2 3 4 5
accurate
x 6
add to favorites
launch autoscroll
font size
0
reset
how to read this tab
guitar tuner
Tab Pro tools
  • play this tab
  • loop segment
  • change instrument
  • show fretboard
  • metronome
Autoscroll
slow
fast
+/-
esc
set tempo
stop
Difficulty
novice
Tune One semi tone down!

Intro:
-------------0--------------0---|
----------3----3------------0---|
-----------0-----0-----0----0---|  x4
------2/4-----4----4/-5-\4--2---|
----------------------------2---|
----------------------------0---|

----0-------------2------0-------------2----|
----0-------------3------0-------------3----|
----0-------------2------0-------------2----|
----2---2--0------0------2---2--0------0----|
----2--------2-----------2--------2---------|
----0--------------------0------------------|

----0--------------0--------0-----------1---|
----0--------------0--------1---------------|
----0--------------0--------2---------------|
----2---2-2-2-1-0--2--------2---------------|
----2--------------2---2-3--0--0-2-3-2--2---|
----0--------------0-0------------------3---|

G                    Em
I must confess this blood in my chest
D                             Em
I've made a great mistake so cruel
Em                          G
One, two, three there's an owl on me
          D                          Em
and I'm searching for how it used to be
             Am               Em
Why dont you give yourself to me,I
      D              Em
I've got a deal for you
     Am  Em        D          Em
But Oh yes I've a lot to confess,
   D                   Em
Drowning far away from home
  D                 Em
Tied to a heart of stone

Last Part of intro:
----0--------------0--------0-----------1---|
----0--------------0--------1---------------|
----0--------------0--------2---------------|
----2---2-2-2-1-0--2--------2---------------|
----2--------------2---2-3--0--0-2-3-2--2---|
----0--------------0-0------------------3---|

G            Em
Darling my days are so bleak
 D                           Em
Pretending that you're still alive,
Em                     G
Lonely nights, this mariner cries
D                           Em
He's drowning in desperate tides, because
        Am      Em         D                Em
This solitary mindset has left me cursed in fame
   Am   Em         D                  Em
But oh death i would give my last breath
  D                      Em
Drowning far away from home
D                    Em
My sinking heart of stone

Second part of intro:
----0-------------2------0-------------2----|
----0-------------3------0-------------3----|
----0-------------2------0-------------2----|
----2---2--0------0------2---2--0------0----|
----2--------2-----------2--------2---------|
----0--------------------0------------------|

 Am Em             D      Em
Oh death can I breathe my last breath
 Am      Em       D        Em
Yes yes I have alot to confess

---0-------- -0--------------0---|
---0-------3----3------------0---|
---0--------0-----0-----0----0---|  x2
---2---2/4-----4----4/-5-\4--2---|
---2-------------------------2---|
---0-------------------------0---|

----0-------------2------0-------------2----|
----0-------------3------0-------------3----|
----0-------------2------0-------------2----|
----2---2--0------0------2---2--0------0----|
----2--------2-----------2--------2---------|
----0--------------------0------------------|

----0--------------0--------0-----------1---|
----0--------------0--------1---------------|
----0--------------0--------2---------------|
----2---2-2-2-1-0--2--------2---------------|
----2--------------2---2-3--0--0-2-3-2--2---|
----0--------------0-0------------------3---|

              Am    Em             D                  Em
Because this solitary mindset has left me cursed with fate
    Am   Em
But oh death
         D             Em
Can't breathe my last breath
D                   Em
Drowning far away from home
D                         Em
Stuck with my heart of stone

Outro:
-------------0--------------0---|
----------3----3------------0---|
-----------0-----0-----0----0---|
------2/4-----4----4/-5-\4--2---|
----------------------------2---|
----------------------------0---|

-------------0--------------0---    -0---0---0---0---0-|
----------3----3------------0---    -3---3---3---3---0-|
-----------0-----0-----0----0---    -0---0---0---0---0-|
------2/4-----4----4/-5-\4--2---    -4---4---4---4---2-|
----------------------------2---    -0---0---0---0---2-|
----------------------------0---    -----------------0-|


Have fun!
Tabbed By Johan Carlsson
comments
print report bad tab
I want to post or [tab]
guest
You may want to rate the tab now too:
select rating
Please do not post tabs as comments. Select "correction" instead!