Oops, an error
Loading. Please wait.

Mobile Chateau Tab

2,335 views 1 this week
no commentswrite comment
1 2 3 4 5
please rate
add to favorites
launch autoscroll
font size
0
reset
how to read this tab
guitar tuner
Autoscroll
slow
fast
+/-
esc
set tempo
stop
Help us to improve Ultimate-Guitar.com Take our survey!
×
Author
Difficulty
novice
Mobile Chateau by Matt Costa, tabbed by Roine El-Habta.

D = Down strum, U = Up strum

Enjoy! :)


INTRO:


    G    

e|-----0--0-------0--0-------0--0-------0--0--|
B|-----0--0-------0--0-------0--0-------0--0--|
G|-----0--0-------0--0--0^2--2--2-------0--0--|  REPEAT A COUPLE
D|-----0--0--0^2--2--2-------0--0--0^2--2--2--|  OF TIMES
A|-----2--2-------0--0-------0--0-------0--0--|
E|--3--3--3-------3--3-------3--3-------3--3--|

       D  U       D  U       D  U       D  U



VERSES:


    G                                            G

e|-----0--0-------0--0-------0--0-------0--0--|-----0--0-------0--0-------0--0-------0--0--|
B|-----0--0-------0--0-------0--0-------0--0--|-----0--0-------0--0-------0--0-------0--0--|
G|-----0--0-------0--0--0^2--2--2-------0--0--|-----0--0-------0--0--0^2--2--2-------0--0--|
D|-----0--0--0^2--2--2-------0--0--0^2--2--2--|-----0--0--0^2--2--2-------0--0--0^2--2--2--|
A|-----2--2-------0--0-------0--0-------0--0--|-----2--2-------0--0-------0--0-------0--0--|
E|--3--3--3-------3--3-------3--3-------3--3--|--3--3--3-------3--3-------3--3-------3--3--|

       D  U       D  U       D  U       D  U        D  U       D  U       D  U       D  U


    Far      away                  is   the      moon

    Far      away                  is   the      sun
  

    G                                            G

e|-----0--0-------0--0-------0--0-------0--0--|-----0--0-------0--0-------0--0-------0--0--|   
B|-----0--0-------0--0-------0--0-------0--0--|-----0--0-------0--0-------0--0-------0--0--|
G|-----0--0-------0--0--0^2--2--2-------0--0--|-----0--0-------0--0--0^2--2--2-------0--0--|
D|-----0--0--0^2--2--2-------0--0--0^2--2--2--|-----0--0--0^2--2--2-------0--0--0^2--2--2--|
A|-----2--2-------0--0-------0--0-------0--0--|-----2--2-------0--0-------0--0-------0--0--|
E|--3--3--3-------3--3-------3--3-------3--3--|--3--3--3-------3--3-------3--3-------3--3--|

       D  U       D  U       D  U       D  U        D  U       D  U       D  U       D  U


    Shining   down                 in   her      room

    Winter                         you  will     come


    C                                      G   

e|-----0--0-----0--0-----0--0-----0--0--|-----0--0-------0--0-------0--0-------0--0--|
B|-----1--1-----1--1-----1--1-----1--1--|-----0--0-------0--0-------0--0-------0--0--|
G|-----0--0-----0--0-----0--0-----0--0--|-----0--0-------0--0--0^2--2--2-------0--0--|
D|-----2--2-----2--2-----2--2-----2--2--|-----0--0--0^2--2--2-------0--0--0^2--2--2--|
A|--3--3--3--3--3--3--3--3--3--3--3--3--|-----2--2-------0--0-------0--0-------0--0--|
E|-----x--x-----x--x-----x--x-----x--x--|--3--3--3-------3--3-------3--3-------3--3--|

       D  U     D  U     D  U     D  U        D  U       D  U       D  U       D  U


             Found  you  tripping  on the  stars

             With   your   lily    white   hands


    C                                      G   

e|-----0--0-----0--0-----0--0-----0--0--|-----0--0-------0--0-------0--0-------0--0--|
B|-----1--1-----1--1-----1--1-----1--1--|-----0--0-------0--0-------0--0-------0--0--|
G|-----0--0-----0--0-----0--0-----0--0--|-----0--0-------0--0--0^2--2--2-------0--0--|
D|-----2--2-----2--2-----2--2-----2--2--|-----0--0--0^2--2--2-------0--0--0^2--2--2--|
A|--3--3--3--3--3--3--3--3--3--3--3--3--|-----2--2-------0--0-------0--0-------0--0--|
E|-----x--x-----x--x-----x--x-----x--x--|--3--3--3-------3--3-------3--3-------3--3--|

       D  U     D  U     D  U     D  U        D  U       D  U       D  U       D  U


             Making   mobiles   out   of   parts

             Making   crafts    out   of   plants



CHORUS:


    C                                      Em                    Am

e|-----0--0-----0--0-----0--0-----0--0--|-----0--0------0--0--|-----0--0-----0--0--|
B|-----1--1-----1--1-----1--1-----1--1--|-----0--0------0--0--|-----1--1-----1--1--|
G|-----0--0-----0--0-----0--0-----0--0--|-----0--0------0--0--|-----2--2-----2--2--|
D|-----2--2-----2--2-----2--2-----2--2--|-----2--2------2--2--|-----2--2-----2--2--|
A|--3--3--3--3--3--3--3--3--3--3--3--3--|-----2--2------2--2--|--0--0--0--0--0--0--|
E|-----x--x-----x--x-----x--x-----x--x--|--0--0--0---0--0--0--|-----x--x-----x--x--|

       D  U     D  U     D  U     D  U        D  U      D  U        D  U     D  U


             That you found lying on the   ground, hark the      birds are singing...

             Found you weeping in the      snow, hark the        bells are ringing...


    C                    G   

e|-----0--0-----0--0--|-----0--0-------0--0-------0--0-------0--0--|
B|-----1--1-----1--1--|-----0--0-------0--0-------0--0-------0--0--| 
G|-----0--0-----0--0--|-----0--0-------0--0--0^2--2--2-------0--0--|  REPEAT THE INTRO
D|-----2--2-----2--2--|-----0--0--0^2--2--2-------0--0--0^2--2--2--|  A COUPLE OF TIMES
A|--3--3--3--3--3--3--|-----2--2-------0--0-------0--0-------0--0--|
E|-----x--x-----x--x--|--3--3--3-------3--3-------3--3-------3--3--|

       D  U     D  U        D  U       D  U       D  U       D  U 


 ...we've been lost and  found

 ...I  won't  let  you   go                                            And with the...



BRIDGE:


    C/G                                    C/G   

e|-----0--0-----0--0-----0--0-----0--0--|-----0--0-----0--0-----0--0-----0--0--|
B|-----1--1-----1--1-----1--1-----1--1--|-----1--1-----1--1-----1--1-----1--1--|
G|-----0--0-----0--0-----0--0-----0--0--|-----0--0-----0--0-----0--0-----0--0--|
D|-----2--2-----2--2-----2--2-----2--2--|-----2--2-----2--2-----2--2-----2--2--|
A|-----3--3-----3--3-----3--3-----3--3--|-----3--3-----3--3-----3--3-----3--3--|
E|--3--3--3--3--3--3--3--3--3--3--3--3--|--3--3--3--3--3--3--3--3--3--3--3--3--|

       D  U     D  U     D  U     D  U        D  U     D  U     D  U     D  U


 ...trees                                                             we will...

 ...geese                                               we ought to stay this...


    G                                            G

e|-----0--0-------0--0-------0--0-------0--0--|-----0--0-------0--0-------0--0-------0--0--|
B|-----0--0-------0--0-------0--0-------0--0--|-----0--0-------0--0-------0--0-------0--0--|
G|-----0--0-------0--0--0^2--2--2-------0--0--|-----0--0-------0--0--0^2--2--2-------0--0--|
D|-----0--0--0^2--2--2-------0--0--0^2--2--2--|-----0--0--0^2--2--2-------0--0--0^2--2--2--|
A|-----2--2-------0--0-------0--0-------0--0--|-----2--2-------0--0-------0--0-------0--0--|
E|--3--3--3-------3--3-------3--3-------3--3--|--3--3--3-------3--3-------3--3-------3--3--|

       D  U       D  U       D  U       D  U        D  U       D  U       D  U       D  U   


 ...sway                                                                         The sky and...

 ...way



REAPEAT THE CHORUS ONCE MORE AND THEN USE THE INTRO AS AN OUTRO TO COMPLETE THE SONG.
Suggest correction
Give kudos to tab author, rate the tab!
1 2 3 4 5
comments
print report bad tab
guest
You may want to rate the tab now too:
select rating
Wanna post a correction for this tab? Suggest correction