Oops, an error
Loading. Please wait.

Never Looking Back Tab

2,433 views 1 this week
no commentswrite comment
1 2 3 4 5
please rate
add to favorites
launch autoscroll
font size
0
reset
how to read this tab
guitar tuner
Autoscroll
slow
fast
+/-
esc
set tempo
stop
Help us to improve Ultimate-Guitar.com Take our survey!
×
Author
Really liked the harmonica solo in this song, but i cant play
so i tried it on guitar and it sounds really good. 


   A                              G                     D               A
e|--------------------------------------------------------------------------|
B|-----2---3-2-0--------------2---5/7-5-3--5h7-5h7-7-10---------------------|
G|--2------------2---------2----------------------------11---9h11-9\7--\--2-|
D|-----------------2--------------------------------------------------------|
A|--------------------------------------------------------------------------|
E|--------------------------------------------------------------------------|

   A                              G                     D                A
e|---------------------------------------------------------------------------|
B|---------3-2-0--------------2---5/7-5-3--5h7-5h7-7-10----------------------|
G|--2------------2---------2----------------------------11---9h11-9\7--\--2/-|
D|-----------------2---------------------------------------------------------|
A|---------------------------------------------------------------------------|
E|---------------------------------------------------------------------------|

Verse chords is same as solo chords, the chorus goes like this:


A                         E    Bm                           D    Bm
I know it happens all the time, I heard them talk behind my back 
                    D  D* Bm E
So im never looking back   


D*:

e|------2-----------|
B|------3-----------|
G|------0-----------|
D|------2-----------|
A|------------------|
E|------------------|
Suggest correction
Give kudos to tab author, rate the tab!
1 2 3 4 5
comments
print report bad tab
guest
You may want to rate the tab now too:
select rating
Please do not post tabs as comments. Select "correction" instead!