Oops, an error
Loading. Please wait.

Songs We Sing Tab

version 1
version 1

Intro

Whole song

978 views 1 this week
no commentswrite comment
1 2 3 4 5
please rate
add to favorites
launch autoscroll
font size
0
reset
how to read this tab
guitar tuner
Autoscroll
slow
fast
+/-
esc
set tempo
stop
Help us to improve Ultimate-Guitar.com Take our survey!
×
Difficulty
intermediate
--------------------------------------------|
--------------------------------------------|
--------------------------------------------|
--------------------------------------------|
--7--7-5-3-2---0-2-3-2-------0-2-3-2--------|
--------------------------3-----------3-3---|


---------------------------------------------------|
-------------------0---------------0---------------|
-----------0---------2--6-5----5-----2-6-5-4-------|
----4-------2-----------6-5----5-------6-5-4-------|
--2----------2--0-------4-3--3-3--0----4-3-2-------|
--------0------------------------------------------|

This is a closer but i dont think its 100%
comments
We did not receive enough feedback on this tab! Please rate:
print report bad tab
1 2 3 4 5
I want to post or [tab]
guest
You may want to rate the tab now too:
select rating
Please do not post tabs as comments. Select "correction" instead!