Oops, an error
Loading. Please wait.

Songs We Sing Tab

version 1
version 1

Whole song

7,689 views 1 this week
4 commentsread comments
1 2 3 4 5
accurate
x 5
add to favorites
launch autoscroll
font size
0
reset
how to read this tab
guitar tuner
Autoscroll
slow
fast
+/-
esc
set tempo
stop
Help us to improve Ultimate-Guitar.com Take our survey!
×
     _______________
    / songs we sing/
   / Matt Costa   /
  /______________/
   INTRO:
    E-----------------------------------]
    B-----------------------------------]
    G-----------------------------------]
    D-2--2-0----------------------------]
    A--------3-2--0-2-3-2---0-2-3-2-----]
    E---------------------3---------3-3-]

  VERSE:                D C   G G       D C G
    E-------------------2-0---3-3-------2-0-3-]
    B---------------0---3-1---0-0-------3-1-0-]
    G-------0---------2-2-0---0-0---0---2-0-0-]
    D---4-----2---------0-2---0-0-----2-0-2-0-]
    A-2---------2-0-----0-3---2-2-0-----0-3-2-]
    E-----0-------------x-x-3-3-3-------x-x-3-]

   CHORUS:
      /-----Em----/ /----Am----/  /----Em----------] Am
    [E-0-0-0-0-0-0--0-0-0-0-0-0---0-0-0-0-0-0--0---]
    [B-0-0-0-0-0-0--1-1-1-1-1-1---0-0-0-0-0-0--1---]
    [G-0-0-0-0-0-0--2-2-2-2-2-2---0-0-0-0-0-0--2---]
    [D-2-2-2-2-2-2--2-2-2-2-2-2---2-2-2-2-2-2--2---]
    [A-2-2-2-2-2-2--0-0-0-0-0-0---2-2-2-2-2-2--0---]
    [E-0-0-0-0-0-0--0-0-0-0-0-0-0-0-0-0-0-0-0--0---]

  VERSE 2:                D C   G G       D C G
    E-------------------2-0---3-3-------2-0-3-]
    B---------------0---3-1---0-0-------3-1-0-]
    G-------0---------2-2-0---0-0---0---2-0-0-]
    D---4-----2---------0-2---0-0-----2-0-2-0-]
    A-2---------2-0-----0-3---2-2-0-----0-3-2-]
    E-----0-------------x-x-3-3-3-------x-x-3-]

CHORUS:
      /-----Em----/ /----Am----/  /----Em----------] Am
    [E-0-0-0-0-0-0--0-0-0-0-0-0---0-0-0-0-0-0--0---]
    [B-0-0-0-0-0-0--1-1-1-1-1-1---0-0-0-0-0-0--1---]
    [G-0-0-0-0-0-0--2-2-2-2-2-2---0-0-0-0-0-0--2---]
    [D-2-2-2-2-2-2--2-2-2-2-2-2---2-2-2-2-2-2--2---]
    [A-2-2-2-2-2-2--0-0-0-0-0-0---2-2-2-2-2-2--0---]
    [E-0-0-0-0-0-0--0-0-0-0-0-0-0-0-0-0-0-0-0--0---]

    -ENJOY-    Matt Costa is a great musician
    he's going to become huge.
Suggest correction
comments
print report bad tab
4 comments total. Showing first comments.
+1 reply
marcelaguiar 609 wrote on November 30 2006, 10:08 pm

this rules!!!!!!!

+1 reply
smewings 122 wrote on March 16 2008, 08:04 am

Pretty certain the chorus has A instead of Am, but otherwise very good.

+1 reply
deathcab4katie 20 wrote on May 25 2008, 02:06 pm

i agree. i use an A instead, too.

guest
You may want to rate the tab now too:
select rating
Please do not post tabs as comments. Select "correction" instead!