Oops, an error
Loading. Please wait.

Sunshine Tab

version 1
version 1

Solo

Whole song

Interactive

2,053 views 6 this week
no commentswrite comment
1 2 3 4 5
please rate
add to favorites
launch autoscroll
font size
0
reset
how to read this tab
guitar tuner
Tab Pro tools
  • play this tab
  • loop segment
  • change instrument
  • show fretboard
  • metronome
×
Best way to learn
"Sunshine"
Autoscroll
slow
fast
+/-
esc
set tempo
stop
Contributor
Difficulty
Capo
intermediate
1st fret



HEY! It seems like there are a lot of tabs with the solo part of this song but I'M going 
to include the chords too cause I couldn't find it anywhere else.

CAPO 1

G  D  G  D  D  A  Bm  G  D  A  D
            G                                     D
e |--------|-----------------------------------|--------------------|
B |--------|-----10------10------10------10----|-/12-/10--10--------|
G |--------|-9h11----9h11----9h11----9h11---9--|--------11—-11\9----|
D |------0-|-----------------------------------|-----------------12-|
A |--0-2---|-----------------------------------|--------------------|
E |--------|-----------------------------------|--------------------|
    G                               D
e |-------------------------------|-----10----------------|
B |-----10-----10-----10-----10---|-/12----12\10----------|
G |-9h11—--9h11---9h11---9h11---9-|--------------11-11/12-|
D |-------------------------------|-----------------------|
A |-------------------------------|-----------------------|
E |-------------------------------|-----------------------|
   D           A  Bm             G      D        A         D
e |-----10-10--9---------------------|-------------------------------|
B |-----10-10-10--/12-10-------------|----10---10------7-----7-------|
G |-/11------------------9h11p9------|-/11---11---11\9-----9---9p6-7-|
D |-----------------------------9-12-|-------------------------------|
A |----------------------------------|-------------------------------|
E |----------------------------------|-------------------------------|

e |------10-10--|
B |------10-10--|
G |--/11----11--|
D |-------------|
A |-------------|
E |-------------|
comments
We did not receive enough feedback on this tab! Please rate:
print report bad tab
1 2 3 4 5
I want to post or [tab]
guest
You may want to rate the tab now too:
select rating
Please do not post tabs as comments. Select "correction" instead!