Oops, an error
Loading. Please wait.

Sunshine Tab

version 2
version 2

Whole song

Interactive

15,369 views 1 this week
2 commentsread comments
1 2 3 4 5
1 last vote to show rating
add to favorites
launch autoscroll
font size
0
reset
how to read this tab
guitar tuner
Autoscroll
slow
fast
+/-
esc
set tempo
stop
Help us to improve Ultimate-Guitar.com Take our survey!
×
Difficulty
Capo
novice
1st fret
Tabbed by Marius.M
Capo 1, notes relative to capo
Listen to the song for the rythm

      D    A    G     B
e ----2----0----3-----2-------|
B ----3----2----3-----3-------|
G ----2----2----------4-------|
D ----0----2----------4-------|
A --------------2-----2-------|
E --------------3-----2-------|

Intro            D
e ----------------------------|
B ----------------------------|
G -4p2------------------------|
D -----3h4-0--3h4--0----------|
A ----------------------------|
E ----------------------------|

 D    A       G             A
Sunshine I'd really like to tell you all my

 D    A       B           G
Sunshine even though your skys are

 D               A         B             G
blue your drying up my bed how can I get any rest

 D         A         D
sha la la la la la la la la

 D    A  G                  A
some day you will get the best of me

 D   A             B        G
Some day probably when I'm old and grey

 D        A            B               G
Im lying in my bed and I will soon be put to rest now

 D         A         B        A
sha la la la la la la la la

Solo-

e ----------5----5-----5-----5----5-5h7-5---------------------------|
B -------5h7--5h7---5h7---5h7--5h7--------5h7-5---------------------|
G ------------------------------------------------7>----------------|
D ------------------------------------------------------------------|
A -0-2-5------------------------------------------------------------|
E ------------------------------------------------------------------|


e ------5----5-----5-----5----5---5/10----7—7\5---------------------|
B ---5h7--5h7---5h7---5h7--5h7-------------------7—7/8--------------|
G ------------------------------------------------------------------|
D ------------------------------------------------------------------|
A ------------------------------------------------------------------|
E ------------------------------------------------------------------|


e ---/10--10--10---9---7\7----5-------------------------------------|
B -----------------9-------------7--------5-------------------------|
G -------------------------------------7>---------------------------|
D ------------------------------------------------------------------|
A ------------------------------------------------------------------|
E ------------------------------------------------------------------|


e -------5-----5--------------------------------10---10-------------|
B –5/7------7-----7—7\5---7---5h7---5------/10-------10-------------|
G -------------------------------------7>---------------------------|
D ------------------------------------------------------------------|
A ------------------------------------------------------------------|
E ------------------------------------------------------------------|
 D    A       G             A
Sunshine I'd really like to tell you all my

 D    A       B             G
Sunshine even though your skys are

 D               A         B             G
Blue your drying up my bed how can I get any rest

 D         A         D
sha la la la la la la la la

 D        A        G                A
And some day you will get the best of me

 D        A         B        G
 Some day probably when I'm old and grey

 D        A            B               G
Im lying in my bed and I will soon be put to rest now


h = Hammer on
p= Pull off
>=stretch 
/=slide up
\=slide down

Have fun!

Suggest correction
Give kudos to tab author, rate the tab!
1 2 3 4 5
comments
print report bad tab
2 comments total.
0 reply
yonni_man 131 May 03, 2006 11:57 AM

Really good apart from B is Bm!!

0 reply
epiphonedan 42 May 13, 2006 09:31 PM

you copied man

guest
You may want to rate the tab now too:
select rating
Wanna post a correction for this tab? Suggest correction