Oops, an error
Loading. Please wait.

Sunshine Tab

version 3
version 3

Whole song

Interactive

31,553 views 1 this week
16 commentsread comments
1 2 3 4 5
accurate
x 12
add to favorites
launch autoscroll
font size
0
reset
how to read this tab
guitar tuner
Tab Pro tools
  • play this tab
  • loop segment
  • change instrument
  • show fretboard
  • metronome
×
Best way to learn
"Sunshine"
Autoscroll
slow
fast
+/-
esc
set tempo
stop
Contributor
Capo
1st fret
-------------------------------------------------------------------------------
                             Sunshine - Matt Costa
-------------------------------------------------------------------------------
Tabbed by: Alejandro
Email: janegrete89@hotmail.com

Tuning:standard
Capo I

Chords relative to capo

Intro

|---------------2-2-|---2-2---|
|---------------3-3-|---3-3---|
|-4p2-----------2-2-|---2-2---| x6
|-0--3h4---0--------|-0-------|
|--------0---0------|-0-------|
|-------------------|---------|

Chorus x2

 D   A     G                  A
Sunshine, I'd really like to meet you oh my
 D   A          Bm          G
Sunshine even though your skies are
 D               A             Bm            G
Blue your drying up my bed and how can I get any rest now?
 D         A             D              D
Sha la la la la la la la la


Someday....

Chords for SOLO..

Dx4 AX4 Dx4 Ax4
Gx2 Ax2 Bmx2 Ax2
Dx2 Ax4 Gx2 Ax2

Solo (relative to capo): 2nd Guitar

|-----------------|
|-----------------|
|-----------------| 
|------------0----|
|--------0-2------|
|-----------------|

|-----5----5----5----5-------5/7-5---5--------5----5----5----5---------10--------------|
|-5h7--5h7--5h7--5h7---------------/7-7---5h7--5h7--5h7--5h7-------/12----12/10--7-7/8-|
|---------------------------------------7----------------------------------------------|
|--------------------------------------------------------------------------------------|
|--------------------------------------------------------------------------------------|
|--------------------------------------------------------------------------------------|

|----10-10--9--/7-5--------------------------------5---5------------------------5----------|
|----10-10-10---------5h7p5-7p5----------------5/7--/7---7----7---7---------5/7------------|
|-/11-------------------------------7----------------------/9--/9---9--5/7--------7~~~~~---|
|------------------------------------------------------------------------------------------|
|------------------------------------------------------------------------------------------|
|------------------------------------------------------------------------------------------|


Chorus x 2

Little bit at the end...played real fast

|-5---------------------------------------|---------------------------------|
|--7-5-----------5h7p5---7-5--------------|---------------------------------|
|------7-6-7-6-7-------------7------------|---------------------------------|
|-----------------------------------------|---------------------------------|
|-----------------------------------------|---------------------------------|
|-----------------------------------------|---------------------------------|

| /  slide up
| \  slide down
| h  hammer-on
| p  pull-off
| ~  vibrato
| +  harmonic
| x  Mute note
===============================================================================
comments
print report bad tab
16 comments total. Showing first comments.
0 reply
Acousticwannab wrote on December 19 2006, 11:33 pm

Absolutely BRILLLIANT well done

0 reply
bollocks 101 wrote on February 11 2007, 01:50 pm

wow u evn nailed the solo great tab :)

0 reply
greenelephants wrote on March 7 2007, 04:07 pm

Perfect, well done :)

I want to post or [tab]
guest
You may want to rate the tab now too:
select rating
Please do not post tabs as comments. Select "correction" instead!