Oops, an error
Loading. Please wait.

Sunshine Tab

version 4
version 4

Whole song

Interactive

62,377 views 24 this week
4 commentsread comments
1 2 3 4 5
excellent!
x 26
add to favorites
launch autoscroll
font size
0
reset
how to read this tab
guitar tuner
Autoscroll
slow
fast
+/-
esc
set tempo
stop
Help us to improve Ultimate-Guitar.com Take our survey!
×
Author
Capo
1st fret
Sunshine By Matt Costa.
Songs We Sing.
Tabbed By Michael Higgins.

Capo 1st fret, all tab relative to capo.

e |----------------------------|
B |----------------------------|
G |--4p2-----------------------|
D |--0---3-4-0---0-------------|
A |------------0---------------|
E |----------------------------|

Intro D

D  A         G              A
Sunshine I'd really like to tell you oh my

D  A          Bm           G
Sunshine even though your skies are

 D               A         Bm            G
blue your drying up my bed how can I get any rest now

D         A           D
sha la la la la la la la


D    A   G                A
some day you will get the best of me

D    A            Bm       G       D
Some day probably when I'm old and grey

         A           Bm               G
Im lying in my bed and I will soon be put to rest now

D         A           D
sha la la la la la la la 


e |--------|-----------------------------------|--------------------|
B |--------|-----10------10------10------10----|-/12-/10--10--------|
G |--------|-9h11----9h11----9h11----9h11---9--|--------11—-11\9----|
D |------0-|-----------------------------------|-----------------12-|
A |--0-2---|-----------------------------------|--------------------|
E |--------|-----------------------------------|--------------------|

e |-------------------------------|-----10----------------|
B |-----10-----10-----10-----10---|-/12----12\10----------|
G |-9h11—--9h11---9h11---9h11---9-|--------------11-11/12-|
D |-------------------------------|-----------------------|
A |-------------------------------|-----------------------|
E |-------------------------------|-----------------------|

e |-----10-10--9---------------------|-------------------------------|
B |-----10-10-10--/12-10-------------|----10---10------7-----7-------|
G |-/11------------------9h11p9------|-/11---11---11\9-----9---9p6-7-|
D |-----------------------------9-12-|-------------------------------|
A |----------------------------------|-------------------------------|
E |----------------------------------|-------------------------------|

e |------10-10--|
B |------10-10--|
G |--/11----11--|
D |-------------|
A |-------------|
E |-------------|


D  A         G              A
Sunshine I'd really like to tell you oh my

D  A          Bm          G
Sunshine even though your skies are

D               A          Bm             G
blue your drying up my bed how can I get any rest now

D         A           D
sha la la la la la la la


D    A   G                A
some day you will get the best of me

D    A            Bm       G
Some day probably when I'm old and grey

D        A           Bm               G
Im lying in my bed and I will soon be put to rest now


D  A


D         A
I'm lying in my bed
   Bm              G
And I will soon be put to rest now
D       A       Bm      G
Ooooooh ooooooh ooooooh ooooooh


D         A
I'm lying in my bed
   Bm              G
And I will soon be put to rest now
D       A       Bm      G
Ooooooh ooooooh ooooooh ooooooh
D         A           D
Sha la la la la la la la
Suggest correction
comments
print report bad tab
4 comments total. Showing first comments.
+1 reply
Travismard 62 wrote on April 22 2009, 04:59 pm

Matt Costa actually plays this song in drop D.
He plays the G like this |--3--------
|--3--------
|--0--------
|--0--------
|--5--------
|--5--------
Other than that this tap is great. Well done

0 reply
Wantaansoup22 73 wrote on April 28 2009, 02:25 pm

great job man. sounds awesome!

0 reply
Chris 10B 10 wrote on April 7 2010, 03:21 pm

so what travismard is saying: no capo, drop D, different G...?
and it should be perfect

guest
You may want to rate the tab now too:
select rating
Please do not post tabs as comments. Select "correction" instead!