Oops, an error
Loading. Please wait.

Tv Gods tab

version 3
version 3

Whole song

37 views 1 this week
no commentswrite comment
1 2 3 4 5
3 more votes to show rating
add to favorites
×
Save as Personal and add changes to this tab that will be seen only by you. Learn more ›
×
You can save this tab as Personal to edit and correct it or add notes. All changes will be seen only by you. Learn more »
launch autoscroll
font size
0
reset
how to read this tab
guitar tuner
edit
Autoscroll
slow
fast
+/-
esc
set tempo
stop
Author
[Intro]

e|--------------------|--------------------|--------------------|--------------------|
B|--------------------|--------------------|--------------------|--------------------|
F|--------------------|--------------------|--------------------|--------------------|
D|---0---0-/3--0----0-|---0---0-/3--0----0-|---0---0-/3--0----0-|---0---0-/3--0----0-|
A|-----0--------------|-----0--------------|-----0--------------|-----0--------------|
D|-0-------------/3---|-0-------------/3---|-0-------------/3---|-0-------------/3---|
   . . . .  .  .  . .   . . . .  .  .  . .   . . . .  .  .  . .   . . . .  .  .  . .

e|--------------------|----------|
B|--------------------|----------|
F|--------------------|----------|
D|-/5~~~~~~~~~~~~~~~~-|-7\~5\~3\-|
A|--------------------|----------|
D|--------------------|---7\~5\~-|


[Verse 1]

e|--------------------|   |-----------------|   |--------------------|
B|--------------------|   |-----------------|   |--------------------|
F|--------------------|   |---0-------0-----|   |--------------------|
D|---0---0-/3--0----0-|x4 |-------0-------0-|x4 |---0---0-/3--0-/3-0-|x4
A|-----0--------------|   |-----------------|   |-----0---------/3---|
D|-0-------------/3---|   |-0---0---0---0---|   |-0-------/3----/3---|
   . . . .  .  .  . .
   Somethings in my coffee...


[Chorus]

e|----------------|----------------|----------------|---------|
B|----------------|----------------|----------------|---------|
F|----------------|----------------|----------------|---------|
D|3-3-3-3-3-3-3-3-|5-5-5-5-5-5-5-5-|0---------------|-7\~5\~3\|
A|3-3-3-3-3-3-3-3-|5-5-5-5-5-5-5-5-|----------------|---------|
D|3-3-3-3-3-3-3-3-|5-5-5-5-5-5-5-5-|----------------|---7\~5\~|
  They're our TV Gods...

e|----------------|---------|----------------|---------|
B|----------------|---------|----------------|---------|
F|2h4-2-----------|---------|2h4-2-----------|---------|
D|---0--3-0-------|---------|---0--3-0-------|---------|
A|-----0----------|---------|-----0----------|---------|
D|----------------|---------|----------------|---------|
 |                                                     |
e|----------------|---------|----------------|---------|
B|----------------|---------|----------------|---------|
F|----------------|---------|----------------|---------|
D|--0---0---0---0-|-7\~5\~3\|--0---0---0---0-|-7\~5\~3\|
A|----------------|---------|----------------|---------|
D|0---0---0---0---|---7\~5\~|0---0---0---0---|---7\~5\~|


[Verse 2]

e|----------------|  |----------------|----------------|
B|----------------|  |----------------|----------------|
F|--2-------------|  |----------------|----------------|
D|------3-3-3---0-|  |----0-3-5br-3---|----0-3-5br-3---|
A|------------3---|  |--3-----------5-|--3-----------5-|
D|----------------|  |----------------|----------------|
 |                |x4|                                 |
e|----------------|  |----------------|----------------|
B|----------------|  |----------------|----------------|
F|----------------|  |----------------|----------------|
D|--0---0---0---0-|  |3-3-3-3-3-3-3-3-|5-5-5-5-5-5-5-5-|
A|----------------|  |3-3-3-3-3-3-3-3-|5-5-5-5-5-5-5-5-|
D|0---0---0---0---|  |3-3-3-3-3-3-3-3-|5-5-5-5-5-5-5-5-|
  It's in the offices...

e|----------------|  |----------------|----------------|
B|----------------|  |----------------|----------------|
F|--2-------------|  |----------------|----------------|
D|------3-3-3---0-|  |----0-3-5br-3---|----0-3-5br-3---|
A|------------3---|  |--3-----------5-|--3-----------5-|
D|0---0-----------|  |----------------|----------------|
 |                |x2|                                 |
e|----------------|  |----------------|----------------|
B|----------------|  |----------------|----------------|
F|----------------|  |----------------|----------------|
D|--0---0---0---0-|  |3-3-3-3-3-3-3-3-|5-5-5-5-5-5-5-5-|
A|----------------|  |3-3-3-3-3-3-3-3-|5-5-5-5-5-5-5-5-|
D|0---0---0---0---|  |3-3-3-3-3-3-3-3-|5-5-5-5-5-5-5-5-|
                      They're our TV Gods...


[Chorus]

e|----------------|---------|
B|----------------|---------|
F|----------------|---------|
D|0---------------|-7\~5\~3\|
A|----------------|---------|
D|----------------|---7\~5\~|


e|----------------|---------|----------------|---------|
B|----------------|---------|----------------|---------|
F|2h4-2-----------|---------|2h4-2-----------|---------|
D|---0--3-0-------|---------|---0--3-0-------|---------|
A|-----0----------|---------|-----0----------|---------|
D|----------------|---------|----------------|---------|
 |                                                     |
e|----------------|---------|----------------|---------|
B|----------------|---------|----------------|---------|
F|----------------|---------|----------------|---------|
D|--0---0---0---0-|-7\~5\~3\|--0---0---0---0-|-7\~5\~3\|
A|----------------|---------|----------------|---------|
D|0---0---0---0---|---7\~5\~|0---0---0---0---|---7\~5\~|


e|--------------------|
B|--------------------|
F|--------------------|
D|---0---0-/3--0-/3-0-|x4
A|-----0---------/3---|
D|-0-------/3----/3---|


e|----------------|----------------|
B|----------------|----------------|
F|----------------|----------------|
D|----0-3-5br-3---|----0-3-5br-3---|
A|--3-----------5-|--3-----------5-|
D|----------------|----------------|
 |                                 |
e|----------------|----------------|----------------|
B|----------------|----------------|----------------|
F|----------------|----------------|----------------|
D|3-3-3-3-3-3-3-3-|5-5-5-5-5-5-5-5-|0---------------|
A|3-3-3-3-3-3-3-3-|5-5-5-5-5-5-5-5-|----------------|
D|3-3-3-3-3-3-3-3-|5-5-5-5-5-5-5-5-|----------------|
  They're our TV Gods...


[Bridge]

e|------------------------|--------------------|
B|------------------------|--------------------|
F|------------------------|--------------------|
D|------0h3p0---/3-0-/3-0-|------0h3p0---------|x2
A|------------0------/3---|--------------------|
D|0h5p0---------/3---/3---|0h5p0-------0-5-3-0-|

e|----------------------------------------------------------------|  |----|
B|----------------------------------------------------------------|  |----|
G|--0-------0-------0-------0-------0-------0-------0-------0-----|  |----|
D|------0-------0-------0-------0-------0-------0-------0-------0-|x2|----|
A|----------------------------------------------------------------|  |----|
D|0---0---0---0---3---3---3---3---5---5---5---5---3---3---3---3---|  |0---|
  They want to keep you numb...


[Solo 1]

e|-------------------|-------------------|
B|-------------------|-------------------|
F|4h5p4---4------4---|4h5p4---4----------|
D|-----5---5-3-5-----|-----5---5-3-2-----|x2
A|-----------------5-|---------------5---|
D|-------------------|-------------------|


e|----------------|----------------|
B|----------------|----------------|
F|----------------|----------------|
D|----0-3-5br-3---|----0-3-5br-3---|
A|--3-----------5-|--3-----------5-|
D|----------------|----------------|
 |                                 |
e|----------------|----------------|----------------|---------|
B|----------------|----------------|----------------|---------|
F|----------------|----------------|----------------|---------|
D|3-3-3-3-3-3-3-3-|5-5-5-5-5-5-5-5-|0---------------|-7\~5\~3\|
A|3-3-3-3-3-3-3-3-|5-5-5-5-5-5-5-5-|0---------------|---------|
D|3-3-3-3-3-3-3-3-|5-5-5-5-5-5-5-5-|0---------------|---7\~5\~|
  They're our TV Gods...


[Solo 2]

e|5h6p5--5------5---|5h6p5--5----------|
B|-----8--8-6-8-----|-----8--8-6-5-----|
F|----------------9-|--------------9---|
D|------------------|------------------|
A|------------------|------------------|
D|------------------|------------------|
 |                                     |x2
e|------------------|------------------|
B|------------------|------------------|
F|------------------|------------------|
D|---0----0---0---0-|---0----0---0---0-|
A|------------------|------------------|
D|-0---0----0---0---|-0---0----0---0---|

  3rd guitar is added:
e|------------------|-----------------|-----------------|-----------------|
B|------------------|-----------------|-----------------|-----------------|
F|4h5p4--4------4---|4h5p4--4---------|4h5p4--4------4--|4h5p4--4---------|
D|-----5--5-3-5-----|-----5--5-3-2----|-----5--5-3-5----|-----5--5-3-2----|
A|----------------5-|--------------5--|---------------5-|--------------5--|
D|------------------|-----------------|-----------------|-----------------|
 |                                                                        |
e|5h6p5--5------5---|5h6p5--5------5--|5h6p5--5------5--|5h6/10-----------|
B|-----8--8-6-8-----|-----8--8-6-8----|-----8--8-6-8----|-----------------|
F|----------------9-|---------------9-|---------------9-|-----------------|
D|------------------|-----------------|-----------------|-----------------|
A|------------------|-----------------|-----------------|-----------------|
D|------------------|-----------------|-----------------|-----------------|
 |                                                                        |
e|------------------|-----------------|-----------------|-----------------|
B|------------------|-----------------|-----------------|-----------------|
F|------------------|-----------------|-----------------|-----------------|
D|---0----0---0---0-|-3-3-3-3-3-3-3-3-|-5-5-5-5-5-5-5-5-|-0---------------|
A|------------------|-3-3-3-3-3-3-3-3-|-5-5-5-5-5-5-5-5-|-0---------------|
D|-0---0----0---0---|-3-3-3-3-3-3-3-3-|-5-5-5-5-5-5-5-5-|-0---------------|
                      . . . . . . . .   . . . . . . . .   .


[Verse 3]

e|---------|
B|---------|
F|---------|
D|-7\~5\~3\|
A|---------|
D|---7\~5\~|


e|----------------|  |----------------|----------------|
B|----------------|  |----------------|----------------|
F|--2-------------|  |----------------|----------------|
D|------3-3-3---0-|  |----0-3-5br-3---|----0-3-5br-3---|
A|------------3---|  |--3-----------5-|--3-----------5-|
D|----------------|  |----------------|----------------|
 |                |x4|                                 |
e|----------------|  |----------------|----------------|
B|----------------|  |----------------|----------------|
F|----------------|  |----------------|----------------|
D|--0---0---0---0-|  |3-3-3-3-3-3-3-3-|5-5-5-5-5-5-5-5-|
A|----------------|  |3-3-3-3-3-3-3-3-|5-5-5-5-5-5-5-5-|
D|0---0---0---0---|  |3-3-3-3-3-3-3-3-|5-5-5-5-5-5-5-5-|
  It's in the TV he said...

e|--------------------------|    -----5/10~~~|
B|--------------------------|
F|--------------------------|
D|0-0-0-------0h3p0---------|
A|0-0-0---------------------|
D|0-0-0-0h5p0-------0-5-3-0-|
  . . .



************************************

.  = palm mute
/  = slide up (with slide)
\  = slide down (with slide)
~  = vibrato (with slide)
br = bend up half step and release
h  = hammer-on
p  = pull-off

************************************

            
            
Suggest correction
Creating personal tab
Creating personal tab
You can edit any tab online and save it as your Personal.

You can edit, replace or remove any tab part or add personal notes – all changes will be seen only by you.

Personal tabs can be accessed anytime from any device, even offline.
Learn more »
Give kudos to tab author, rate the tab!
1 2 3 4 5
comments
print report bad tab
guest
You may want to rate the tab now too:
select rating
Wanna post a correction for this tab? Suggest correction