Oops, an error
Loading. Please wait.

Unfamiliar Faces Chords

version 1
version 1

Whole song

9,521 views 1 this week
no commentswrite comment
1 2 3 4 5
x 4
add to favorites
launch autoscroll
font size
0
reset
transpose
0
reset
simplify chords
display chords
guitar tuner
Autoscroll
slow
fast
+/-
esc
set tempo
stop
Help us to improve Ultimate-Guitar.com Take our survey!
×
Author
----------------------------------------------------------------------------
                             Unfamiliar Faces - Matt Costa
----------------------------------------------------------------------------

Tabbed by: Stroem

Tuning: Half step down, including solo.


Enjoy!

Dsus:
e|---0----------|
B|---3----------|
G|---2----------|
D|---0----------|
A|---0----------|
E|--------------|

Intro:
D Dsus F#m  Bm F#m E

A       C#m    D       E
Your surprises wear disguises
A           C#m            D            E
All of your truths masquerade around on Hallow's Eve


   A          Bm            C#m         D
So I'll never know what you show to unfamiliar faces


A    C#m        D     E
So impressed by you undressing
A                C#m             D
Did you take his hand aside from love?
                E
The truth would break me in two


A          Bm            C#m         D
I'll never know what you show to unfamiliar faces


D           Dsus                   F#m
This is the voice that's scared to hear those names
Bm             F#m                E
So this is the void we'll leave a hole in space

Okay, the solo:
not 100% on this but feel free to correct me. 
   A  C#m   D     E     A    C#m        D       E 
e|-----------------------------------------------------------------------|
B|-----------------------------------------------------------------------|
G|-----------------------------------------------------------------------|
D|--7-6--7-6-4-6-4--6----7-9---------------------------------------------|
A|---------------------------11--11-12-9--9-11-12-11-9-11----------------|
E|-----------------------------------------------------------------------|

    A    Bm      C#m  D
e|-----------------------------------------------|
B|-----------------------------------------------|
G|--2--2/4--4--4/6--6-7--------------------------|
D|-----------------------------------------------|
A|-----------------------------------------------|
E|-----------------------------------------------|


     A       C#m    D        E
I'll take it kindly if you'd blind me
A       C#m                   D           E
Holding inside the thoughts I have inquisitively wondering

A          Bm            C#m         D
I'll never know what you show to unfamiliar faces

D               Dsus                   F#m
But this is the voice that's scared to hear those names
Bm             F#m                E
So this is the void we'll leave a hole in space


A          Bm            C#m         D
I'll never know what you show to unfamiliar faces
Suggest correction
comments
print report bad tab
guest
You may want to rate the tab now too:
select rating
Wanna post a correction for this tab? Suggest correction