Oops, an error
Loading. Please wait.

Unfamiliar Faces Chords

version 3
version 3

Whole song

731 views 1 this week
no commentswrite comment
1 2 3 4 5
2 more votes to show rating
add to favorites
launch autoscroll
font size
0
reset
transpose
0
reset
display chords
guitar tuner
Autoscroll
slow
fast
+/-
esc
set tempo
stop
Help us to improve Ultimate-Guitar.com Take our survey!
×
Difficulty
novice
Intro:   

    C#maj     C#m      Fm       Bbm       Fm      D#maj
e]----4--------4--------1--------1---------1--------6------]
b]----3--------4--------1--------2---------1--------8------]
g]----3--------3--------1--------3---------1--------8------]
d]----3--------3--------3--------3---------3--------8------]
a]----4--------4--------3--------1---------3--------6------]
E]----x--------x--------1--------x---------1--------x------]


1st verse:
    G#maj    Cm      C#maj     D#maj
e]----4-------3--------4--------6------]
b]----4-------4--------3--------8------]
g]----3-------5--------3--------8------]
d]----5-------5--------3--------8------]
a]----5-------3--------4--------6------]
E]----4-------x--------x--------x------]

G#maj  Cm     C#maj    D#maj
Your surprises wear disguises

G#maj        Cm     C#maj               D#maj
All of your truths masquerade around on Hallow's Eve

G#maj         Bbm           Cm       C#maj               
So I'll never know what you show to unfamiliar faces



G#maj  Cm     C#maj    D#maj
So impressed by you undressing

G#maj            Cm              C#maj                 D#maj
Did you take his hand aside from love? The truth would break me in two
                
G#maj      Bbm           Cm       C#maj          
I'll never know what you show to unfamiliar faces



C#maj     C#m                      Fm     
This is the voice that's scared to hear those names

Bbm            Fm                 D#maj
So this is the void we'll leave a hole in space



G#maj        Cm     C#maj    D#maj
I'll take it kindly if you'd blind me

G#maj     Cm                  C#maj        D#maj
Holding inside the thoughts I have inquisitively wondering



G#maj      Bbm           Cm       C#maj
I'll never know what you show to unfamiliar faces



C#maj           C#m                    Fm     
But this is the voice that's scared to hear those names

Bbm            Fm                 D#maj
So this is the void we'll leave a hole in space



G#maj      Bbm           Cm       C#maj
I'll never know what you show to unfamiliar faces






Suggest correction
Give kudos to tab author, rate the tab!
1 2 3 4 5
comments
print report bad tab
guest
You may want to rate the tab now too:
select rating
Wanna post a correction for this tab? Suggest correction