Oops, an error
Loading. Please wait.

Whiskey And Wine Tab

version 1
version 1

Whole song

10,198 views 3 this week
2 commentsread comments
1 2 3 4 5
worth learning
x 5
add to favorites
launch autoscroll
font size
0
reset
how to read this tab
guitar tuner
Autoscroll
slow
fast
+/-
esc
set tempo
stop
Help us to improve Ultimate-Guitar.com Take our survey!
×
Song: Whiskey and Wine
Artist: Matt Costa
Tabbed by: Josh Galvarino


Intro/Verse

---x---x---x---x--------7---7---7---7-------x----x--|
---x---x---x---x--------7---7---7---7-------x----x--|
---11--11--11--11-------8---8---8---8-------10---11-|
---11--11--11--11-------9---9---9---9-------11---11-|
---9---9---9---9--------9---9---9---9-------11---9--|
---x---x---x---x--------7---7---7---7-------9----x--|

Verse 1:
Bottles of reasons I kept in the freezer
Now they wont leave me, why won't they leave me alone?

Repeat verse 1:
And with these old reasons are bottled up feelings
I wont be leaving no, won't be leaving alone


Chorus part 1:

---x---x-----x---x---x--------x---x-----x---x---x---|
---x---x-----x---x---x--------x---x-----x---x---x---|
---11--11----10--10--10-------8---8-----10--10--10--|
---11--11----11--11--11-------9---9-----11--11--11--|
---9---9-----11--11--11-------9---9-----11--11--11--|
---x---x-----9---9---9--------7---7-----9---9---9---|

Chorus part 1:
What is in it? What is in it?
To pour myself some more

Repeat Chorus part 1:
What is in it? What is in it?
I'm always back for more

Chorus part 2:

---x---x--------x---x---x---x--------x---x---|
---x---x--------x---x---x---x--------x---x---|
---11--11-------8---8---8---8--------10--11--|
---11--11-------9---9---9---9--------11--11--|
---9---9--------9---9---9---9--------11--9---|
---x---x--------7---7---7---7--------9---x---|

Oh whiskey and wine
You've messed up my mind
Whiskey and wine
You've got me this time

Verse 2:

---x---x---x---x--------7---7---7---7-------x----x--|
---x---x---x---x--------7---7---7---7-------x----x--|
---11--11--11--11-------8---8---8---8-------10---11-|
---11--11--11--11-------9---9---9---9-------11---11-|
---9---9---9---9--------9---9---9---9-------11---9--|
---x---x---x---x--------7---7---7---7-------9----x--|

Verse 2:
Bottles of reasons have now reached the ceiling
It's hard to hide it, I'll hide behind it for now

Repeat Verse 2:
My big mouth said too much, I'm shaking at your touch
All the bottles came crashing down to the floor

Chorus part 1:

---x---x-----x---x---x--------x---x-----x---x---x---|
---x---x-----x---x---x--------x---x-----x---x---x---|
---11--11----10--10--10-------8---8-----10--10--10--|
---11--11----11--11--11-------9---9-----11--11--11--|
---9---9-----11--11--11-------9---9-----11--11--11--|
---x---x-----9---9---9--------7---7-----9---9---9---|

Chorus pt. 1:
What is in it? What is in it?
It couldn't be so bad

Repeat Chorus pt. 1:
What is in it? What is in it?
That's driving me so mad

Chorus part 2:

---x---x--------x---x---x---x--------x---x---|
---x---x--------x---x---x---x--------x---x---|
---11--11-------8---8---8---8--------10--11--|
---11--11-------9---9---9---9--------11--11--|
---9---9--------9---9---9---9--------11--9---|
---x---x--------7---7---7---7--------9---x---|

Oh whiskey and wine
You've messed up my mind
Whiskey and wine
You've got me this time

Verse 3:

---x---x---x---x--------7---7---7---7-------x----x--|
---x---x---x---x--------7---7---7---7-------x----x--|
---11--11--11--11-------8---8---8---8-------10---11-|
---11--11--11--11-------9---9---9---9-------11---11-|
---9---9---9---9--------9---9---9---9-------11---9--|
---x---x---x---x--------7---7---7---7-------9----x--|

Verse 3:
Bottles of reasons I've kept in the freezer
Now they won't leave me, why won't they leave me alone?

Repeat Verse 3:
And with these old reasons are bottled up feelings
I won't be leaving, so won't you leave me alone

Chorus part 1:

---x---x-----x---x---x--------x---x-----x---x---x---|
---x---x-----x---x---x--------x---x-----x---x---x---|
---11--11----10--10--10-------8---8-----10--10--10--|
---11--11----11--11--11-------9---9-----11--11--11--|
---9---9-----11--11--11-------9---9-----11--11--11--|
---x---x-----9---9---9--------7---7-----9---9---9---|

Chorus pt. 1:
What is in it? What is in it?
To pour myself some more

Repeat Chorus pt. 1:
What is in it? What is in it?
I'm always back for more

Chorus part 2:

---x---x--------x---x---x---x--------x---x---|
---x---x--------x---x---x---x--------x---x---|
---11--11-------8---8---8---8--------10--11--|
---11--11-------9---9---9---9--------11--11--|
---9---9--------9---9---9---9--------11--9---|
---x---x--------7---7---7---7--------9---x---|

Oh whiskey and wine
You've messed up my mind
Whiskey and wine
You've got me this time

Chorus part 2:

---x---x--------x---x---x---x--------x---x---|
---x---x--------x---x---x---x--------x---x---|
---11--11-------8---8---8---8--------10--11--|
---11--11-------9---9---9---9--------11--11--|
---9---9--------9---9---9---9--------11--9---|
---x---x--------7---7---7---7--------9---x---|


I used to be fine 'till whiskey arrived
Now whiskey and wine stays on my mind
Suggest correction
comments
print report bad tab
2 comments total.
0 reply
mannyfresh 21 wrote on July 5 2008, 08:25 pm

lyrics are right..but that's about it

0 reply
terminou 10 wrote on July 21 2008, 11:14 am

realy ... wrong.

guest
You may want to rate the tab now too:
select rating
Please do not post tabs as comments. Select "correction" instead!