Oops, an error
Loading. Please wait.

Whiskey And Wine Tab

version 2
version 2

Whole song

6,334 views 1 this week
no commentswrite comment
1 2 3 4 5
2 more votes to show rating
add to favorites
launch autoscroll
font size
0
reset
how to read this tab
guitar tuner
Autoscroll
slow
fast
+/-
esc
set tempo
stop
Help us to improve Ultimate-Guitar.com Take our survey!
×
Author
-----------------------------------------------------------------------------
                             SONG NAME - Band Name
-------------------------------------------------------------------------------
Tabbed by:
Email:

Tuning:

INTRO
e|---------------2--------------2--------------------------------2---2-----------|
B|---------------2--------------2--------------------------------2---2-----------|
G|-----5h4-2----------5h4-2----------5h4-2--4-4-4/5h4--2-4-2-4---2---2-----------|
D|-----------4--------------4------------------------------------3---4-----------|
A|---------------------------------------------------------------4---4-----------|
E|---------------------------------------------------------------2---2-----------|


VERSE
F#m
Bm
F#mmaj7

| /  slide up
| \  slide down
| h  hammer-on
| p  pull-off
| ~  vibrato
| +  harmonic
| x  Mute note
===============================================================================
Suggest correction
Give kudos to tab author, rate the tab!
1 2 3 4 5
comments
print report bad tab
guest
You may want to rate the tab now too:
select rating
Wanna post a correction for this tab? Suggest correction