Oops, an error
Loading. Please wait.

How We Fell tab

3,178 views 45 this week
no commentswrite comment
1 2 3 4 5
x 5
add to favorites
×
Save as Personal and add changes to this tab that will be seen only by you. Learn more ›
×
You can save this tab as Personal to edit and correct it or add notes. All changes will be seen only by you. Learn more »
launch autoscroll
font size
0
reset
how to read this tab
guitar tuner
edit
Autoscroll
slow
fast
+/-
esc
set tempo
stop
Difficulty
#----------------------------------PLEASE NOTE---------------------------------#
#This file is the author's own work and represents their interpretation of the #
#song. You may only use this file for private study, scholarship, or research. #
#------------------------------------------------------------------------------#

Matt Elliott - Oh How We Fell tab

Tabbed by: Leopoldo Varela Cabral
E-mail: pistolilla58@hotmail.com

Feel free to edit, improve or comment..

A7:       x02020
Am:       x02210 or xx555
Am*:      xxx558
E:        022100
E7:       020100 or xx434
E/A:      x02100
F:        133211 or xx565 
F/E:      033200
Dm(add9): x1o331

// Intro:
                                        E       Dm(add9)   E       Dm(add9)
e|-------------------------------------~0-------------0------------------0---|
B|-------------------------------------~0-------0-~3----3-~0-------0-~3----3-|
G|-------------------------------------~1-----1---~2------~1-----1---~2------|
D|-------------0-2-3-0-2---0-----------~2---2-----~3------~2---2-----~3------|
A|-------0-2-3-----------3---2-3-0-----~2---------~0------~2---------~0------|
E|-0-1-4---------------------------4-1-~0------------------------------------|

   E      Dm(add9)
e|--------------0------------------------------------------------------------|
B|~0------0-~3----3-1-0-3-1-0-0h1p0------------------------------------------|
G|~1----1---~2---------------------2-1---------------------------------------|
D|~2--2-----~3------------------------3-2-0h3p2p0-2----2-0-------------------|
A|~2--------~0---------------------------------------------3-2h3p2p0-2---2-0-|
E|---------------------------------------------------0-----------------------|

       Am           E                                   F/E  E          Am
e|-----(0)------------------0-0--------0-------0-----------------------------|
B|-----~1-----------------0------3-1-0---3-1-0---3-1---0---0---0---------1-1-|
G|-----~2---------------1------------1-------1-------1---2---1-----------2-2-|
D|-----~2-------------2-----2--------2-------2-------2---3---2-----------2-2-|
A|-----~0-----0------------------------------------------------------2-0-----|
E|--4-----------4-1-0--------------------------------0---0---0---0-4---------|

           E                                  F/E  E         Am           E
e|-----------------0-0---0---0---0---0---0-----------------------------------|
B|-1-------------0-----4---0---4---0---4---------0------------1-1-1----------|
G|-2-----------1-----------1-------1-------1-1/2---1----------2-2-2----------|
D|-2---------2-------------2-------2-------2-2/3---2----------2-2-2---------2|
A|---0--------------------(2)-----(2)-------------(2)-----2-0-------0--------|
E|-----4-1-0-------0-----------------------0-0-----0--0-4-------------4-1-0--|

             Dm(add9)     E      Dm(add9)  E      Dm(add9)
e|-----0-----------0------------------0-----------------0--------------------|
B|---0-------0-~3----3-1-~0------0-~3---3-~0------0-~3----3-1-0-3-1-0-0h1p0--|
G|-1-------1---~2--------~1----1---~2-----~1----1---~2----------------------2|
D|-------2-----~3--------~2--2-----~3-----~2--2-----~3-----------------------|
A|-------------~0--------~2--------~0-----~2--------~0-----------------------|
E|-----0-----------------(0)--------------(0)--------------------------------|

                                                Am        E               Am 
e|----------------------------------------------~0----------------0--0---0---|
B|----------------------------------------------~1--------------0------4---1-|
G|1---1h2p1-------------------------------------~2------------1------------2-|
D|--3------3p2-0-2----2-0-----------------------~2----------2--------------2-|
A|-----------------------3-2h3p2-0-2--2-0h2p0---~0--0----------------------0-|
E|-------------------0------------------------4-(0)---4-1-0-------0----------|

                E              Am               E              Am
e|0---0---0---0---0---0---0---0---0---0---0---0---0---0---0---0---0-------0--|
B|--4---1---4---0---4---0---4---1---4---1---4---0---4---0---4---1---4\3-1---4|
G|------2-------1-------1-------2-------2-------1-------1-------2-------2----|
D|------2-------2-------2-------2-------2-------2-------2-------2-------2----|
A|------0-------2-------2-------0-------0-------2-------2-------0-------0----|
E|---------------------------------------------------------------------------|
     E                    Dm(add9)    E      Dm(add9)     E      Dm(add9)
e|-0---0-----------------------0-------------------0-------------------0-----|
B|---0---4-1h4p1-0--------0-~3---3-1-~0------0-~3----3-1-~0------0-~3----3-1-|
G|---1-----------1------1---~2-------~1----1---~2--------~1----1---~2--------|
D|---2-----------2----2-----~3-------~2--2-----~3--------~2--2-----~3--------|
A|---2-----------2----------~0-------~2--------~0--------~2--------~0--------|
E|------------------0--------------------------------------------------------|
                                                                Am        E
e|--------------------------------------------------------------~0-----------|
B|0-3-1-0-0h1p0-------------------------------------------------~1-----------|
G|--------------2-1---1h2p1-------------------------------------~2-----------|
D|------------------3------3p2-0-2----2-0-----------------------~2-----------|
A|---------------------------------------3-2h3p2-0-2--2-0h2p0---~0--0--------|
E|-----------------------------------0------------------------4--0----4-1-0--|


e|-------0-------|
B|-----0-------0-|
G|---1-------1---|
D|-2-------2-----|
A|---------------|
E|-------0-------|

// Fast finger picking:

   F               Dm              E
e|----1---1---1---1---1---1---1---1---0---0---0---0|
B|---1---1---1---1---3---3---3---3---0---0---0---0-|
G|--2---2---2---2---2---2---2---2---1---1---1---1--| x2
D|-----3-------3---0-------0-----------2-------2---|
A|---------------------0-------0-------------------|
E|-1-------1-----------------------0-------0-------|

  Dm                Am              E7             
e|-5---5---5---5---5---5---5---5---4---4---4---4---|
B|----6---6---6---6---5---5---5---5---3---3---3---3|
G|---7---7---7---7---5---5---5---5---4---4---4---4-|
D|-------------------------------------------------|
A|-------------------------------------------------|
E|-------------------------------------------------|

Am*            E7               Am             F
The sudden realization that not all is what it seems
Am*            E7       Am 
rises somehow exponentially
   Dm           Am          E
it turns from a cry into a wail
         Am              Dm(add9)   
then a scream and then a howl,
    Am             E            Am
an endless broken dull soliloquy

Am            Dm(add9)                E    E7
Pain can force the hand and turn the mind
Am                      Dm(add9)       E    E7
the pictures taint the judgement every time
Am*           E7              Am                 F
then i turn around and see a wreck strewn on the road
     Am*              E7                Am
The pictures and the pain you'll never know
     Dm               Am               E
the pictures and the pain that I was good enough
    Am               Dm(add9)
to keep from scarring you.
       Am                 E               Am
Some things are meant for you and you alone

    Am            Dm(add9)     E   E7
And so I add more fuel to the fire
    Am             Dm(add9)       E   E7
and try to find an answer in the pyre
    Am*                  E7              Am               F
at first the flames are comfort but the smoke gets in the eyes
        Am*           E7                Am
there's only so much left that one can burn
     Dm             Am                 E            
and now I find I'm dancing 'round the ashes 
         Am               Dm(add9)
of the bridges that i've burned.
         Am                E                  Am
I take nothing from the lessons that I learned

    Am             Dm(add9)          E    E7
And so the wheel relentlessly goes round
     Am             Dm(add9)        E    E7
just cuts the rut a little deeper down
      Am                 A7            Dm(add9)
this youthful smile has turned into a frown,
     Am              E  
the eyes forever down,
      E7                 Am
the spark forever drowned.

e|----------------0----------------------0---------------0-------------0-----|
B|-1-1-0-1--0-1-3---3-1-0-1-1-0-1--0-1-3---3-1-0-------0---------0-1-3---3-1-|
G|-----------------------------------------------2-1-1---1---1-2-------------|
D|-2-2-2-2--2-2-3---3-2-0-2-2-2-2--2-2-3---3-2-0-------2---------0-2-3---3-2-|
A|-----------------------------------------------3-2-2-------2-3-------------|
E|---------------------------------------------------------------------------|

                                  Am      Dm Am          Dm Dm(add9)
e|----------0------------------0---0-0-0-0-1-0--0-0-0-0-0-1-0--0--0---0--0-0-|
B|0-------0---------0-3-1---1-------1---1---3-1----1---1---3-3-----3---3--3--|
G|--2-1-1---1---1-2-------2--2-------(2)-------2----(2)-------2--2---2--2---2|
D|0-------2---------0-3-2--2--2-----2---2--0-------2---2--0-3----------------|
A|--3-2-2-------2-3------------0--0---0------0---0---0----------0---0---0---0|
E|---------------------------------------------------------------------------|

      Am               E/A      F/E         E                   Am
e|-0---------------------0----0--------------------------0-0-0-0-------------|
B|3-0h1--1-1-1-1-1-1-1-0--0-0--0--0---0---0---0---0---0---0-1-3-3-3-1-1-0-0-1|
G|-----2----2---2---2---1----1-----2---2---2---1---1---1---------2-2-2-2-2-2-|
D|------2-----2---2--------------3---3---3---2---2---2-----------------------|
A|--0-----0------------0----0---3---3---3---2---2---2---2-------0------------|
E|---------------------------------------------------------------------------|

      Dm               Am               E                       Am
e|----1-1---1---1-3-1--0-0---0-----0------0----0----0----0-0-0-0-------------|
B|-1---3-3---3---3-3-3--1-1---1-1-3-3-1-0--0-0--0-0--0----0-1-3-3-3-1-1-0-0-1|
G|2-2------2---2------------2------------1----1----1-------------2-2-2-2-2-2-|
D|----0---0---0--------------------------------------------------------------|
A|---------------------0---0---0------------------------2-------0------------|
E|--------------------------------------0----0----0--------------------------|

e|-----
B|-1---
G|2-2--
D|-----
A|-----
E|-----

      Dm
I'll sing as I go
           Dm(add9)         Am
I've learned well that it's best not to know
                Dm(add9)
and I use up the last of what's left
      Am          E            Am
in a vain effort just to forget

             Dm
this anchor drags as it's pulled
                     Am
it's disturbing the calm of the pool
                   Dm(add9)
I am lost in this mournful refrain
      Am     E               Am
while re-analyzing this stain,
Dm(add9) Am               E           Am
  this tainted wreck of lies... again

            Dm
and if what you said is true
                    Am               
I'm condemned to repeat 'till i'm through
                   Dm(add9)
least until i can learn to forgive
    Am           E           Am
or learn simply not to relive

           Dm
and this dream i could weep
                  Am
so profoundly i finally could sleep
                   Dm(add9)
undisturbed by the demons and shades
         Am       E               Am
and this endless cycle of betrayal

      A7              Dm(add9)        A7             Dm/A
e|---------------------------------------------------------0-----------0-----|
B|----2-------2-------3-------3-------5-------5------6---6---6---6---6---6---|
G|----0-------0-------2-------2-------6-------6--------7---7---7---7---7---7-|
D|----2-2-2---2-2-2---3-3-3---3-3-3---5-5-5---5-5-5--7---7---7---7---7---7---|
A|-----------------------------------------------------0-------0---0-------0-|
E|---------------------------------------------------------------------------|
      oh             how             we             fell
                                                                      Dm/A...
e|--------------------------------------------------------------------------0
B|---8--8--8--8----8--8--8--8--8-----8--8--8--8---8--8--8--8--8--8----6---6--
G|---9--9--9--9----7--7--7--7--7-----6--6--6--6---6--6--6--6--6--6------7---7
D|---8--8--8--8----8--8--8--8--8-----8--8--8--8---7--7--7--7--7--7----7---7--
A|----------------------------------------------------------------------0----
E|---------------------------------------------------------------------------
and how is one supposed to mourn if one is not entirely sure what has died
and if it's dead and if it's dead and if it's dead and if it's dead why can't i cry
and all the things you told me that you read upon my palm they were lies

              A7    Dm(add9) A7 Dm(add9)          A7          Dm(add9)
e|----------------------------------6--5------------0--------------~3p0---0--|
B|--5---------2---------3--2-2---3----------3-3-3-2--2-----------3-~3--3-3-3-|
G|--6---------0---------2--0-0---2---------2-2-2-2-0--3-2-0------2-~2---2---2|
D|--5---------2---------3--2-2---3-3--3---3-------2--------3-2-0-3-~3--------|
A|---------------------------------------------------------------------------|
E|---------------------------------------------------------------------------|
   say that they were lies

  A7         Dm(add9)       A7              Dm(add9)
e|--~3p0---0------3-0---0-------------------------|
B|2-~2--2-2-2--3-~3--3-3-3--2--2-2-2-0--2-----~3--|
G|0-~0---0---0-2-~2---2---2-0--0-0-0-0--0-----~2--|
D|2-~2---------3-~3---------2--2-2-2-0--2-----~3--|
A|------------------------------------------------|
E|------------------------------------------------|

************************************

| /   slide up
| \   slide down
| h   hammer-on
| p   pull-off
| ~   strum

************************************

            
            
Suggest correction
Creating personal tab
Creating personal tab
You can edit any tab online and save it as your Personal.

You can edit, replace or remove any tab part or add personal notes – all changes will be seen only by you.

Personal tabs can be accessed anytime from any device, even offline.
Learn more »
comments
print report bad tab
guest
Wanna post a correction for this tab? Suggest correction