Oops, an error
Loading. Please wait.

Daylight bass

version 1
version 1

Whole song

Interactive

3,795 views 1 this week
1 commentread comment
1 2 3 4 5
x 4
add to favorites
×
Save as Personal and add changes to this tab that will be seen only by you. Learn more ›
×
You can save this tab as Personal to edit and correct it or add notes. All changes will be seen only by you. Learn more »
launch autoscroll
font size
0
reset
guitar tuner
edit
Autoscroll
slow
fast
+/-
esc
set tempo
stop
Difficulty
intermediate
Daylight-Matt and Kim

G --------------------------------------------------|
D --------------------------------------------------|
A -5-----5------------------------------------------|
E ---------5~------2-------2-------0-0-0-0----------|

the above section is played throughout the entire
song, it is repeated many times up until
the bridge, but than starts up again. In the
outro things dochange up though...

G -------------------------46----------------------46-|
D ---------------------------44-4-44-4-44-77-7-77-----|
A -55-0-55-5-0-55--5--5--55---------------------------|
E ----------------------------------------------------|

Repeat this till the end. The outro is a odd tempo
on bass so play it the way you feel easiest. Even
i play it a tad different sometimes. This is my
first tab so i hope it helped you guys. thanks!
Suggest correction
Creating personal tab
Creating personal tab
You can edit any tab online and save it as your Personal.

You can edit, replace or remove any tab part or add personal notes – all changes will be seen only by you.

Personal tabs can be accessed anytime from any device, even offline.
Learn more »
comments
print report bad tab
1 comment total.
0 reply
amazespidy 40 Jul 21, 2016 08:34 AM

It dosent clearly state what to do the entire song. It could be fixed by copying and pasting and have it relate to the lyrics

guest
Wanna post a correction for this tab? Suggest correction