Oops, an error
Loading. Please wait.

Daylight intro tab

version 1
version 1

Intro

Interactive

31,869 views 1 this week
2 commentsread comments
1 2 3 4 5
x 5
add to favorites
×
Save as Personal and add changes to this tab that will be seen only by you. Learn more ›
×
You can save this tab as Personal to edit and correct it or add notes. All changes will be seen only by you. Learn more »
launch autoscroll
font size
0
reset
how to read this tab
guitar tuner
edit
Autoscroll
slow
fast
+/-
esc
set tempo
stop
Author
I was looking for a tab for this song and couldn't find it, so I've decided to make one 
to help others start.  Please feel free to complete it!

E||--9-7---7--9-7---9-9---------|
B||------10-------10------------|
G||-----------------------------|
D||-----------------------------|
A||-----------------------------|
E||-----------------------------|


E||--9-7---7--9-7---12-9--------|
B||------10-------10------------|
G||-----------------------------|
D||-----------------------------|
A||-----------------------------|
E||-----------------------------|


E||--9-7---7--9-7---7-----------|
B||------10-------10--10--------|
G||-----------------------------|
D||-----------------------------|   x2
A||-----------------------------|
E||-----------------------------|


Have fun!!

            
            
Suggest correction
Creating personal tab
Creating personal tab
You can edit any tab online and save it as your Personal.

You can edit, replace or remove any tab part or add personal notes – all changes will be seen only by you.

Personal tabs can be accessed anytime from any device, even offline.
Learn more »
comments
print report bad tab
2 comments total.
0 reply
Jaysus1126 30 Jul 14, 2009 11:38 PM

this is the real tab.

E||-----------------------------------|
B||-----------------------------------|
G||-6-------6---------6-6-------------|
D||----7-9-----9--7-------------------|
A||-----------------------------------|
E||-----------------------------------|

E||-----------------------------------|
B||-----------------------------------|
G||-6-------6---------9-6-------------|
D||----7-9-----9--7-------------------|
A||-----------------------------------|
E||-----------------------------------|

E||-----------------------------------|
B||-----------------------------------|
G||-6-------6-------------------------|
D||----7-9-----9--7---9-9-------------|
A||-----------------------------------|
E||-----------------------------------|

E||-----------------------------------|
B||-----------------------------------|
G||-6-------6-------------------------|
D||----7-9-----9--7---9-7-------------|
A||-----------------------------------|
E||-----------------------------------|

Steph =)

0 reply
Six56 21 Feb 11, 2013 01:41 PM

haha thank you jaysus1126
these were way off

guest
You may want to rate the tab now too:
select rating
Wanna post a correction for this tab? Suggest correction