Oops, an error
Loading. Please wait.

I Wanna bass

608 views 1 this week
no commentswrite comment
1 2 3 4 5
3 more votes to show rating
add to favorites
×
Save as Personal and add changes to this tab that will be seen only by you. Learn more ›
×
You can save this tab as Personal to edit and correct it or add notes. All changes will be seen only by you. Learn more »
launch autoscroll
font size
0
reset
guitar tuner
edit
Autoscroll
slow
fast
+/-
esc
set tempo
stop
Author
Difficulty
I Wanna - Matt And Kim

I love this song and I wish that it was more than two minutes long.
The tab isn't that hard.  I got frustrated when I saw that no one had
submitted at tab for this yet so I just sat down and did it...took me
10 minutes...should take you about 2 to learn.

Intro:
G---------------------------------------------------|
D----------7-7-7------------------------------------|
A-9-9--77--------5-5--9-9-77------------------------|
E----------------------------5-5-5-5-(5)------------|

G---------------------------------------------------|
D----------7-7-7------------------------------------|
A-9-9--77--------5-5--9-9-77-12---------------------|
E---------------------------------------------------|

Repeat whole Intro again when singing begins

Chorus:
G---------------------------------------------------|
D---------------------------------------------------|
A-9--7--12--5--9--7---------------------------------|
E--------------------5~-----------------------------|
x2

Intro x1 - whole thing

Chorus x2

Intro - second part only
Suggest correction
Creating personal tab
Creating personal tab
You can edit any tab online and save it as your Personal.

You can edit, replace or remove any tab part or add personal notes – all changes will be seen only by you.

Personal tabs can be accessed anytime from any device, even offline.
Learn more »
Give kudos to tab author, rate the tab!
1 2 3 4 5
comments
print report bad tab
guest
You may want to rate the tab now too:
select rating
Wanna post a correction for this tab? Suggest correction