Oops, an error
Loading. Please wait.

Alive Again Bass Tab

version 1
version 1

Whole song

Interactive

1,512 views 1 this week
no commentswrite comment
1 2 3 4 5
x 3
add to favorites
launch autoscroll
font size
0
reset
guitar tuner
Autoscroll
slow
fast
+/-
esc
set tempo
stop
Help us to improve Ultimate-Guitar.com Take our survey!
×
Author
Difficulty
intermediate
Hold The Notes!!!

Verse 1: 

G|3-------3| x2
D|-----1---|
A|---------|
E|---------|

G|-------------| 
D|--3--1--3--1-|
A|-------------|
E|-------------|

Chorus:

G|0-00----3-33-----| x4 
D|--- 1-11----3-33-|
A|-----------------|
E|-----------------|


Verse 2: 

G|3-------3| x2
D|-----1---|
A|---------|
E|---------|

G|-------------| 
D|--3--1--3--1-|
A|-------------|
E|-------------|

Chorus:

G|0-00----3-33-----| x4 
D|--- 1-11----3-33-|
A|-----------------|
E|-----------------|

Bridge: twice the speed of the chorus

G|00000000--------33333333---------| x2
D|--------11111111--------33333333-|
A|---------------------------------|
E|---------------------------------|


Chorus:

G|0-00----3-33-----| x4 
D|--- 1-11----3-33-|
A|-----------------|
E|-----------------|

The End
Suggest correction
Give kudos to tab author, rate the tab!
1 2 3 4 5
comments
print report bad tab
guest
You may want to rate the tab now too:
select rating
Wanna post a correction for this tab? Suggest correction