Oops, an error
Loading. Please wait.

Alive Again Tab

version 1
version 1

Whole song

Interactive

6,242 views 6 this week
no commentswrite comment
1 2 3 4 5
please rate
add to favorites
launch autoscroll
font size
0
reset
how to read this tab
guitar tuner
Autoscroll
slow
fast
+/-
esc
set tempo
stop
Help us to improve Ultimate-Guitar.com Take our survey!
×
Author
Lead:

E|---------------------------------|
B|-------6-------6-------6-------6-|
G|-3-3-3---3-3-3---3-3-3---3-2-3---|
D|---------------------------------|  X10
A|---------------------------------|
E|---------------------------------|

'Cause I can see the light...
E|-------------------------------------------------|
B|-------6-------6-------4-------4-------6-------6-|
G|-3-3-3---3-3-3---3-3-3---3-3-3---3-3-3---3-3-3---|
D|-------------------------------------------------|
A|-------------------------------------------------|
E|-------------------------------------------------|

E|---------------------------------|
B|-------4-------4-----------------|
G|-3-3-3---3-3-3---3-3-3-3-3-3-3-3-|
D|---------------------------------|
A|---------------------------------|
E|---------------------------------|

Chorus:

You called and You shouted...
E|-3-3-3-3-3-3-3-3-------6-------6-------6-------6-----------------|
B|-----------------4-3-4---4-3-4---6-3-6---6-3-6---6-3-6-3-6-3-6-3-|
G|-----------------------------------------------------------------|
D|-----------------------------------------------------------------| X2
A|-----------------------------------------------------------------|
E|-----------------------------------------------------------------|

E|-----------------------6-------6-------6-------6-5---5---5---5---|
B|-8-8-8-8-8-8-8-8-8-6-8---8-6-8---6---6---6---6-----6---6---6---6-|
G|-----------------------------------7-------7---------------------|
D|-----------------------------------------------------------------|
A|-----------------------------------------------------------------|
E|-----------------------------------------------------------------|

E|-------------------------------6---------------------------------|
B|-8-8-8-6-8-8-8-6-8-8-8-6-8-6-8---6-6-6-6-6-6-6-6-6-6-6---6---6---|
G|-------------------------------------------------------7---7---7-|
D|-----------------------------------------------------------------|
A|-----------------------------------------------------------------|
E|-----------------------------------------------------------------|

Verse 2:

E|---------------------------------|
B|-------6-------6-------6-------6-|
G|-3-3-3---3-3-3---3-3-3---3-2-3---|
D|---------------------------------|  X8
A|---------------------------------|
E|---------------------------------|

'Cause I can feel the wind...
E|-------------------------------------------------|
B|-------6-------6-------4-------4-------6-------6-|
G|-3-3-3---3-3-3---3-3-3---3-3-3---3-3-3---3-3-3---|
D|-------------------------------------------------|
A|-------------------------------------------------|
E|-------------------------------------------------|

E|---------------------------------|
B|-------4-------4-----------------|
G|-3-3-3---3-3-3---3-3-3-3-3-3-3-3-|
D|---------------------------------|
A|---------------------------------|
E|---------------------------------|

Chorus:

E|-------------------------------6---------------------------------|
B|-8-8-8-6-8-8-8-6-8-8-8-6-8-6-8---6-6-6---6-6-6---6---6---6---6---|
G|---------------------------------------7-------7---7---7---7---7-|
D|-----------------------------------------------------------------| X4
A|-----------------------------------------------------------------|
E|-----------------------------------------------------------------|

Riff & Verse 3:

E|----10-10-13---10--------10-10-13---10--------------13-13-------------------13----------|
B|----------------------------------------------11-11-------11-11-------10-10----10-10-10-|
G|-12-----------------12-------------------10---------------------10-10-------------------|
D|----------------------------------------------------------------------------------------|X4
A|----------------------------------------------------------------------------------------|
E|----------------------------------------------------------------------------------------|

Chorus:

E|-------------------------------6---------------------------------|
B|-8-8-8-6-8-8-8-6-8-8-8-6-8-6-8---6-6-6---6-6-6---6---6---6---6---|
G|---------------------------------------7-------7---7---7---7---7-|
D|-----------------------------------------------------------------| X4
A|-----------------------------------------------------------------|
E|-----------------------------------------------------------------|

E|-6-|
B|-6-|
G|---|
D|---|
A|---|
E|---|
Suggest correction
Give kudos to tab author, rate the tab!
1 2 3 4 5
comments
print report bad tab
guest
You may want to rate the tab now too:
select rating
Wanna post a correction for this tab? Suggest correction