Oops, an error
Loading. Please wait.

Canticle Of Zechariah Tab

499 views 1 this week
no commentswrite comment
1 2 3 4 5
please rate
add to favorites
launch autoscroll
font size
0
reset
how to read this tab
guitar tuner
Autoscroll
slow
fast
+/-
esc
set tempo
stop
Help us to improve Ultimate-Guitar.com Take our survey!
×
Capo
3rd fret
Alive Again
Capo 3 (move the intro up to match the actual keys with capo 3 being the open notes)
Key (Bb)

Em:022000           Em/G:022033
C:X32010            C/G:032013
G:320033            D4:XX0233
D:XX0232

Intro (2x):
   G
e|----------------------------------------------|
B|-------3-------3-------3-------3--------------|
G|---0-------0-------0-----0---0----------------|
D|-5------5---5---5---5-----4-------------------|
A|----------------------------------------------|
E|----------------------------------------------|


Verse 1:
   G
e|----------------------------------------------|
B|-------3-------3-------3-------3--------------|
G|---0-------0-------0-----0---0----------------|
D|-5---5---5---5---5---5-----4------------------|
A|----------------------------------------------|
E|----------------------------------------------|
         I woke up in darkness

   G
e|----------------------------------------------|
B|-------3-------3-------3-------3--------------|
G|---0-------0-------0-------0------------------|
D|-5---5---5---5---5---5---5---5----------------|
A|----------------------------------------------|
E|----------------------------------------------|
         Surrounded by silence, ooh~

   C                                G (play intro 1x)
e|----------------------------------------------|
B|-------3-------3-------3-------3--------------|
G|---5-------5-------5-------5------------------|
D|-5---5---5---5---5---5---5---5----------------|
A|----------------------------------------------|
E|----------------------------------------------|
   Where,          where have I     gone?

   G
e|----------------------------------------------|
B|-------3-------3-------3-------3--------------|
G|---0-------0-------0-----0---0----------------|
D|-5---5---5---5---5---5-----4------------------|
A|----------------------------------------------|
E|----------------------------------------------|
         I woke to reality

   G
e|----------------------------------------------|
B|-------3-------3-------3-------3--------------|
G|---0-------0-------0-------0------------------|
D|-5---5---5---5---5---5---5---5----------------|
A|----------------------------------------------|
E|----------------------------------------------|
         Losing its grip on me, ooh~

   C                                G (play the 5-0-3 4x)
e|----------------------------------------------|
B|-------3-------3-------3-------3--------------|
G|---5-------5-------5-------5------------------|
D|-5---5---5---5---5---5---5---5----------------|
A|----------------------------------------------|
E|----------------------------------------------|
   Where,          where have I     gone?


Prechorus 1:
            D               C
e|----------------------------------------------|
B|----------------3-------3-------1p0-----------|
G|------------0-------0-------0-------0---0-----|
D|--------------4-------4-------2-------2-------|
A|----------5-------5-------3-------------------|
E|----------------------------------------------|
'Cause I can see the        light

   D       G/B     C (build up strum)
e|----------------------------------------------|
B|-------3-------3-3----------------------------|
G|---0-------0-----0----------------------------|
D|-----4-------0---x----------------------------|
A|-5-------2-------3----------------------------|
E|----------------------------------------------|
 Before I see the  sunrise


Chorus:
    Em/G             C/G
You called and You shouted
G                D4
Broke through my deafness
        Em               C
Now I'm breathing in and breathing out
G           D
I'm alive again
    Em           C
You shattered my darkness
G              D
Washed away my blindness
        Em               C
Now I'm breathing in and breathing out
G           D
I'm alive again


Verse 2:
G
 Late have I loved You
G                                  C
 You waited for me, I searched for You
                G
What took me so long?
G
 I was looking outside
G                              C
 As if Love would ever want to hide
                  G
I'm finding I was wrong


Prechorus 2:
       D               C
'Cause I can feel the wind
  D        G       C
Before it hits my skin

Chorus:
    Em             C
You called and You shouted
G                D
Broke through my deafness
        Em               C
Now I'm breathing in and breathing out
G           D
I'm alive again
    Em           C
You shattered my darkness
G              D
Washed away my blindness
        Em               C
Now I'm breathing in and breathing out
G           D   Em   C     G  D
I'm alive again-------------
             Em    C     G       D 
I'm alive again-------------



Bridge:
         Em              C
'Cause I want You, yes I want You
  G             D                   Em
I need You, and I'll do whatever I have to
         C
Just to get through
         G
'Cause I love You,
        D
Yeah I love You         

Chorus:
    Em             C
You called and You shouted
G                D
Broke through my deafness
        Em               C
Now I'm breathing in and breathing out
G           D
I'm alive again
    Em           C
You shattered my darkness
G              D
Washed away my blindness
        Em               C
Now I'm breathing in and breathing out
G           D         G  
I'm alive again

Suggest correction
What's this?
You can suggest a correction to this tab. Community and Mods will review your correction and vote to approve or reject it.
comments
We did not receive enough feedback on this tab! Please rate:
print report bad tab
1 2 3 4 5
guest
You may want to rate the tab now too:
select rating
Please do not post tabs as comments. Select "correction" instead!