Oops, an error
Loading. Please wait.

Christ Is Risen intro tab

version 1
version 1

Intro

Interactive

535 views 3 this week
3 commentsread comments
1 2 3 4 5
1 last vote to show rating
add to favorites
×
Save as Personal and add changes to this tab that will be seen only by you. Learn more ›
×
You can save this tab as Personal to edit and correct it or add notes. All changes will be seen only by you. Learn more »
launch autoscroll
font size
0
reset
how to read this tab
guitar tuner
edit
Autoscroll
slow
fast
+/-
esc
set tempo
stop
Standard tuning, can be played with capo 2 but with the same tab. Usually the lead guitar does this.)

Option 1 (based on what I heard by ear)
[Intro]

e|-------------------13h14-----------------------------14/16~~---------------|
B|---------------14------------------------------14h16-----------------------|
G|--------13h15-------------16~-----------13h15------------------------------|
D|---15-----------------------------15---------------------------------------|
A|---------------------------------------------------------------------------|
E|---------------------------------------------------------------------------|

Option 2 (based on what a friend told me)
[Intro]

e|----------------------14-----------------------------14/16~~---------------|
B|---------------14-16---------------------------14-16-----------------------|
G|--------13-15-------------16~-----------13-15------------------------------|
D|---15-----------------------------15---------------------------------------|
A|---------------------------------------------------------------------------|
E|---------------------------------------------------------------------------|

(The hammer-ons and slides depends on you if your going to play it)
Look at the capo 2 version of the song it fits it without having to transpose it higher.

By AliveSinger

************************************
| h   Hammer-on
| /   Slide up
| ~   Vibrato
************************************

            
            
Suggest correction
Creating personal tab
Creating personal tab
You can edit any tab online and save it as your Personal.

You can edit, replace or remove any tab part or add personal notes – all changes will be seen only by you.

Personal tabs can be accessed anytime from any device, even offline.
Learn more »
Give kudos to tab author, rate the tab!
1 2 3 4 5
comments
print report bad tab
3 comments total.
+1 reply
tbmv45 11 Apr 12, 2016 08:28 PM

Really accurate to the F# key

+1 reply
tbmv45 11 Apr 12, 2016 08:28 PM

Really accurate to the F# key

+1 reply
tbmv45 11 Apr 12, 2016 08:29 PM

Really accurate to the F# key

guest
You may want to rate the tab now too:
select rating
Wanna post a correction for this tab? Suggest correction