Oops, an error
Loading. Please wait.

Garden Live tab

73 views 6 this week
no commentswrite comment
1 2 3 4 5
1 last vote to show rating
add to favorites
×
Save as Personal and add changes to this tab that will be seen only by you. Learn more ›
×
You can save this tab as Personal to edit and correct it or add notes. All changes will be seen only by you. Learn more »
launch autoscroll
font size
0
reset
how to read this tab
guitar tuner
edit
Autoscroll
slow
fast
+/-
esc
set tempo
stop
About this tab version
This is tabbed off one particular live performance. I posted the Youtube link in the tab. He varies the hammer and pull and other aspects of the song from one performance to another so it will make most sense if you watch the link. Was this info helpful? Yes No
Garden By Matt Maher
From live performance here https://www.youtube.com/watch?v=-g2tm-OhPA0
some of the pull off hammer-ons on C will make more sense if you watch the video link.

Capo 2nd Fret

[Intro]
    G B7  C     G6 B7 C
E|--------0--|--------0--|
B|--------1--|--------1--|
G|--0--2--0--|--0--2--0--|
A|--0--1--2--|--0--1--2--|
D|--0--2--3--|--0--2--3--|
E|--3--------|--3--------|

[Verse]
    G  B7 C     G6 B7 C        G6 B7 C      Am Em G2       C  G6         B
E|--------0--|--------0-----|--------0---|--0--0--------|--0---------------|
B|--------1--|--------1p0h1-|--------1---|--1--0--3-----|--1----2p0h2p0----|
G|--0--2--0--|--0--2--0-----|--0--2--0---|--2--0--2-----|--0--0------------|
A|--0--1--2--|--0--1--2-----|--0--1--2---|--2--2--0-----|--2--0----------4-|
D|--0--2--3--|--0--2--3-----|--0--2--3p0-|--0--2--2--2--|--3--0----------2-|
E|--3-----3--|--3-----------|--3---------|-----0--2-----|--0--3------------|

    C    G6             C  D  Em C   D
E|--0-0--------------|--0-s0--0--0---0-0--|
B|--0h1----0h2p0h2---|--1-s3--0--1p0-0h3--|
G|--0-0--0-----------|--0-s0--0--0---0-0--|
A|--0h2--0-----------|--2-s4--2--2---4-4--|
D|--3-3--0---------2-|--3-s5--2--3---5-5--|
E|--3-3--3-----------|-----0--0------0-0--|

[Chorus]                                                      Instrumental
    G  G/B Cadd9     G  G/B  Cadd9       G  G/B Cadd9     G    G2 C C        G2 C
E|-----3-----3----|--3--3-----3--3----|--3--3-----3----|--3----0--0-0--0--------0-0--|
B|-----3-----3----|--3--3-----3--1----|--3--3-----3----|--1p0--3--0h1--0-----2--0h1--|
G|--0--0-----0----|--0--0-----0--0----|--0--0-----0----|--0----2--0-0--0--0--3--0-0--|
A|--0--0-----0----|--0--0-----0--0----|--0--0-----0----|--0----0--0p2--2--3--0--0p2--|
D|--0--2-----3----|--0--2-----3--3----|--0--2-----3----|--0----2--3-3--0--0--2--3-3--|
E|--3--0----------|--3----------------|--3-------------|--3----2--3-3--3--3--2--3-3--|
                                                   “Garden”
[Verse 2]
    G  B7 C                   G6 B7 C                   G6 B7 C         Am    Em G2 C  G
E|--------0----------------|--------0----------------|--------0---------0--|--0-----0--3--|
B|--------1p0h1p0h1p0h1p0--|--------1p0h1p0h1p0h1p0--|--------1p0h1-----1--|--0--3--1--3--|
G|--0--2--0----------------|--0--2--0----------------|--0--2--0---------2--|--0--2--0--0--|
A|--0--1--2p0h2p0h2p0h2p0--|--0--1--2p0h2p0h2p0h2p0--|--0--1--2p0h2-----2--|--2--0--2--0--|
D|--0--2--3----------------|--0--2--3----------------|--0--2--3------2--0--|--2--2--3--2--|
E|--3----------------------|--3----------------------|--3------------------|--0--------3--|
                                                Chorus:
    G2        C  G6         C   D Em  C  D     G6 G/B Cadd9     G6 G/B C     G6 G/B C
E|------------0---------|---0--s0--0--0-s0--|--3--3---3-3-3--|--3--3---0--|--3--3---0-0--|
B|--2---------1--3------|---1--s3--0--1-s3--|--3--3---1-1-1--|--3--3---1--|--3--3---1-1--|
G|--0h3-p0----0--0h1----|---0--s0--0--0-s0--|--0--0---0-0-0--|--0--0---0--|--0--0---0-0--|
A|--0------4--2--0------|---2--s4--3--2-s4--|--0--0---2h0p2--|--0--0---2--|--0--0---0h2--|
D|--2---------3--0------|---3--s5--3--3-s5--|--0--2---3-3-3--|--0--2---3--|--0--2---3-3--|
E|---------------3--p0--|-------------3-s5--|--3--0---0-0-0--|--3--0---3--|--3--0--------|

[Chorus/Outro]
    G  G/B Cadd9     G  G/B Cadd9    G  G/B Cadd9   G6 G  Cadd9 G6 G2 C       G6 G/B C
E|--3--3----3------|--3--3-----3--|--3--3-----0--|--3--3--3-3---3-----0-0--|--3--3---0--|
B|--3--3----1------|--3--3-----1--|--3--3-----1--|--3--3--3-3---3--3--0h1--|--3--3---1--|
G|--0--0----0------|--0--0-----0--|--0--0-----0--|--0--0--0-0---0--2--0-0--|--0--0---0--|
A|--0--0----2p0h2--|--0--0-----2--|--0--0-----2--|--0--0--0h2---0--0--0h2--|--0--0---2--|
D|--0--2----3------|--0--2-----3--|--0--2-----3--|--0--2--3-3---0--2--3-3--|--0--2---3--|
E|--3--0-----------|--3-----------|--3--------3--|--3--0--0-0---3-----3-3--|--3------3--|

       G/B   C  G/B C  Em7 C   D  Em    C  D     G6 G/B Cadd9   G6 G/B C         G6 G/B C
E|-----0--0--0------0--0---0--s0--0--|--0-s0--|--3--3----3------3--3---0------|--3--3---0--|
B|-----3--3--1--3---0--0---1--s3--0--|--1-s3--|--3--3----1p0h1--3--3---1------|--3--3---1--|
G|-----0--0--0--0---0--0---0--s0--0--|--0-s0--|--0--0----0------0--0---0------|--0--0---0--|
A|-----0--0--2--0---2--0---2--s4--2--|--2-s4--|--0--0----2------0--0---2p0h2--|--0--0---2--|
D|-----2--2--3--2---3--2---3--s5--2--|--3-s5--|--0--2----3------0--2---3------|--0--2---3--|
E|--3--------3------0-------------0--|--------|--3--0----0------3--0---3------|--3--3---3--|


    G6 G Cadd9 G2 C            G6 G2 C  G6 G/B Cadd9  G6 G2 C Am7 Bm7   G     G6
E|--3--3--3-3--3--0--0------|--3--0--3--3--3----3--|--0-----3-3p0-0-----3=-|--3--|
B|--3--3--3-3--3--3--1------|--3--3--1--3--3----3--|--3--3--0h1-1s3-----2--|--3--|
G|--0--0--0-0--0--2--0------|--0--2--0--0--0----0--|--2--2--0-0-0s0-----0--|--0--|
A|--0--0--0h2--0--0--2p0h2--|--0--0--2--0--0----2--|--0--0--0h2-2s4-----0--|--0--|
D|--0--2--3-3--0--0--3------|--0--0--3--2--2----3--|--0--2--3-3p0-0--2--2--|--0--|
E|--3--0--0-0--3--3--3------|--3--3--0--3--0----0--|--3-----0-0---0--3-----|--3--|

************************************

| h  Hammer-on
| p  Pull-off

************************************

            
            
Suggest correction
Creating personal tab
Creating personal tab
You can edit any tab online and save it as your Personal.

You can edit, replace or remove any tab part or add personal notes – all changes will be seen only by you.

Personal tabs can be accessed anytime from any device, even offline.
Learn more »
Give kudos to tab author, rate the tab!
1 2 3 4 5
comments
print report bad tab
guest
You may want to rate the tab now too:
select rating
Wanna post a correction for this tab? Suggest correction