Oops, an error
Loading. Please wait.

No Greater Love Tab

7,316 views 21 this week
no commentswrite comment
1 2 3 4 5
please rate
add to favorites
launch autoscroll
font size
0
reset
how to read this tab
guitar tuner
Autoscroll
slow
fast
+/-
esc
set tempo
stop
Help us to improve Ultimate-Guitar.com Take our survey!
×
Author
Difficulty
Capo
intermediate
3rd fret
Matt Maher - No Greater Love (Alive Again)
Tabbed by JP Morrison

Standard tuning
Capo 3rd fret

Chords:
 G/B C2(no.3) G Dsus Em7 A/C# C7  D D/F# A  C2
|-3-----3-----3---3---0---0----0--2--2---0--3-|
|-0-----3-----0---3---3---2----0--3--3---2--3-|
|-0-----0-----0---2---0---2----0--2--2---2--0-|
|-0-----0-----0---0---2---2----2--0--0---2--2-|
|-2-----3-----2---x---2---4----3--x--0---0--3-|
|-x-----x-----3---x---0---x----x--x--2---x--x-|


Intro:
G/B  C2  G Dsus

|------------------------------------------------------|
|------------------------------------------------------|
|---15---15---15---15---15---15---15---15---15--14--15-|
|-12---12---13---13---13---15---15---15---15-----------|
|------------------------------------------------------|
|------------------------------------------------------|


Verse 1:
G/B        C2(no.3)           G       Dsus
   For the city, for the world we pray
Em7              C2(no.3)   G
   Let Your light shine down
              Dsus2
   Come around and live in us
G/B             C2(no.3)    G    Dsus
   For the close and the far away
A/C#         C7      A/C#       C2(no.3)
   Everywhere You are Everywhere


Chorus:
        G
We lift high the banner of the cross
                    G/B       D
There is no greater love than this
   Em7      C2(no.3)
No love but this
      G
Jesus Christ laid down His life for us
                    G/B       D
There is no greater love than His
   Em7      C2(no.3)
No love but His


Verse 2:
G/B       C2(no.3)          G     Dsus
   To the city, to the world we go
Em7           C2(no.3)       G
   Set us free, heal the land
               Dsus2
   You have promised, God, You can
G/B           C2(no.3)      G     Dsus
   To the last and the least we go
A/C#         C7      A/C#       C2(no.3)
   Everywhere You are Everywhere


Chorus


Bridge:
       C2(no.3)     G/B            D/F#         G
In the poor, in the broken, In the crowded city streets
       C2(no.3)     G/B            D/F#         G
In the towers, in the money, In the strong and in the weak
       C2(no.3)     G/B            D/F#         G
In the orphans and the widows, In the churches and the bars
       A          C2            A          C2
You are everywhere. God, You are everywhere


Chorus
Suggest correction
What's this?
You can suggest a correction to this tab. Community and Mods will review your correction and vote to approve or reject it.
comments
We did not receive enough feedback on this tab! Please rate:
print report bad tab
1 2 3 4 5
guest
You may want to rate the tab now too:
select rating
Please do not post tabs as comments. Select "correction" instead!