Oops, an error
Loading. Please wait.

Resurrection Day Tab

900 views 1 this week
no commentswrite comment
1 2 3 4 5
3 more votes to show rating
add to favorites
launch autoscroll
font size
0
reset
how to read this tab
guitar tuner
Autoscroll
slow
fast
+/-
esc
set tempo
stop
Help us to improve Ultimate-Guitar.com Take our survey!
×
----------------------------------------------------------------------------
     Resurrection Day- Matt Maher
----------------------------------------------------------------------------
Email:Dirtbikt_88@hotmail.com
Tuning:Standard
Key:G

I got the chords from sublimesp5

Intro:G C x (a few)
e|--------------------------------------------------------------------------|
B|--------------------------------------------------------------------------|
G|-------------5------------------------------------------------------------|
D|-----5-------5------------------------------------------------------------|
A|-----5-------3------------------------------------------------------------|
E|-----3--------------------------------------------------------------------|

Verse:G w/riff 4x  then C/with riff 2x then G w/riff 2x
      You play the chord then do mutes inbetween the riff and chord
e|----------------------  ----------------------  -----------------------|
B|----------------------  ----------------------  -----------------------|
G|------x---------------x4------5--x------------x2-------x---------------|x2
D|--5---x---4h5p4-------  ------5--x-4h5p4-------  --5---x---4h5p4-------|
A|--5---x--------5-3-5--  ------3--x-------5-3-5-  --5---X--------5-3-5--|
E|--3---x---------------  ---------x-------------  --3---X---------------|

Pre Chorus:E D C D-play on 5th string
e|--------------------------------------------------------|
B|--------------------------------------------------------|
G|---9----------7---------5----------7--------------------|
D|---9----------7---------5----------7--------------------|
A|---7----------5---------3----------5--------------------|
E|--------------------------------------------------------|

Chorus:G G C D
e|--------------------------------------------------------|
B|--------------------------------------------------------|
G|---------5--7-------------------------------------------|x4
D|---5--5--5--7-------------------------------------------|
A|---5--5--3--5-------------------------------------------|
E|---3--3-------------------------------------------------|

First Instramental:G with mutes to C back and forth
e|--------------------------------------------------------|
B|--------------------------------------------------------|
G|------5-------------------------------------------------|x4
D|---5--5-------------------------------------------------|
A|---5--3-------------------------------------------------|
E|---3----------------------------------------------------|

Verse

Pre Chorus

Chorus

Bridge:E D A G C G Ax2
       note-I play octaves for this
e|--------------------------------------------------------|
B|--------------------------------------------------------|
G|--9-----7-------------5---------------------------------|x2
D|--x-----x------7---5--x--5--7---------------------------|
A|--7-----5------x---x--3--x--x---------------------------|
E|---------------5---3-----3--5---------------------------|


Side note-I use the "x" as like scratches not palm mutes.



| /  slide up
| \  slide down
| h  hammer-on
| p  pull-off
| ~  vibrato
| +  harmonic
| x  Mute note
Suggest correction
Give kudos to tab author, rate the tab!
1 2 3 4 5
comments
print report bad tab
guest
You may want to rate the tab now too:
select rating
Wanna post a correction for this tab? Suggest correction