Oops, an error
Loading. Please wait.

Cocaine Cowgirl Tab

version 3
version 3

Whole song

5,073 views 12 this week
5 commentsread comments
1 2 3 4 5
accurate
x 12
add to favorites
launch autoscroll
font size
0
reset
how to read this tab
guitar tuner
Tab Pro tools
  • play this tab
  • loop segment
  • change instrument
  • show fretboard
  • metronome
×
Best way to learn
"Cocaine Cowgirl"
Autoscroll
slow
fast
+/-
esc
set tempo
stop
Contributor
Q - quarter note 
E - 8th note

Lowercase letters indicate rests

If a '+' sign appears after a note then that note is tied to (held on to) the next note.


   E E e e E E e e   E E e e E E e e  
E|-----------------|-----------------|
B|-----------------|-----------------|  First two are hard,
G|-----------------|-----------------|  then the next four
D|-----------------|-----------------|  decrease in volume
A|-----------------|-----------------|  (Echo Effect)
E|-0-0-----0-0-----|-0-0-----0-0-----|

   E E E Q   E E E   E E E Q   E E E   E E E Q   E E E   E E E Q   E E E
E|-------3-------2+|-2-----0-------0+|-0-----0-------0+|-0---------------|
B|-----0-------0---|-----0-------0-3+|-3---0-1-----0-0+|-0---0-0---------|
G|---0-------0-----|---0-------0-----|---0-------0-----|---0---2---------| 
D|-----------------|-----------------|-----------------|-----------2-2-2-|
A|-----------------|-----------------|-----------------|-----------------|
E|-0---------------|-----------------|-----------------|-----------------|
   ^This note is only played the first time
Play through 4 times

Em               C                G
Lookin' back through the chapters of your life 
          Em    C       G
Searching for a storyline 
           Em                        
'Cause the one you're livin' now's doin' nothing for you 
        C                           G 			Em
Say goodbye to your friends and the ones who love you 
       C         G
Movin' on 

   E E E Q   E E E   E E E Q   E E E   E E E Q   E E E   E E E Q   E E E
E|-------3-------2+|-2-----0-------0+|-0-----0-------0+|-0---------------|
B|-----0-------0---|-----0-------0-3+|-3---0-1-----0-0+|-0---0-0---------|
G|---0-------0-----|---0-------0-----|---0-------0-----|---0---2---------| 
D|-----------------|-----------------|-----------------|-----------2-2-2-|
A|-----------------|-----------------|-----------------|-----------------|
E|-0---------------|-----------------|-----------------|-----------------|
Two Times

     Em              C            G
JJ's song, it's been pushing you along 
      Em  C              G
Gypsy man on a one night stand 
Em 
Movin' through the night far from the lights 
      C                     G				Em
On an asphalt path drifting over the white line 
      C              G
Gypsy man nobody knows 

        Em
Cocaine cowgirl 
      C            G
She's out catchin' eyes 
       Em        C             G
On the other end of the desert skies 
Em
Takin' you down to the dark side of town
  C            G
A dark side of town 
Em      C                     G
Cocaine cowgirl nobody knows 
           Em            C                G
Lookin' back through the chapters of your life 
          Em    C       G
Searchin' for a storyline 
Em 
'Cause any line is a good time for you
C                               G 		       Em
Readin' what the world has been writing for you 
        C                G
Cocaine cowgirl nobody knows
 
Em
'Cause any line is a good time for you 
C                	     G			 Em
Livin' what the world has written for you
      C              G  
Gypsy man nobody knows 

Em
'Cause any line is a good time for you
C                         G 			 Em
Livin' what the world has written for you
        C                 G
Cocaine cowgirl nobody knows 

   E E E Q   E E E   E E E Q   E E E   E E E Q   E E E   E E E Q   E E E
E|-------3-------2+|-2-----0-------0+|-0-----0-------0+|-0---------------|
B|-----0-------0---|-----0-------0-3+|-3---0-1-----0-0+|-0---0-0---------|
G|---0-------0-----|---0-------0-----|---0-------0-----|---0---2---------| 
D|-----------------|-----------------|-----------------|-----------2-2-2-|
A|-----------------|-----------------|-----------------|-----------------|
E|-0---------------|-----------------|-----------------|-----------------|
Four Times

Solo Outro

Em C G  Em
________________________
Tabbed By Scott McDonald
comments
print report bad tab
5 comments total. Showing first comments.
0 reply
Alex3456 wrote on August 23 2005, 12:00 am

pretty solid tab man, but for the very first, its not an open E. its actually this cord:
|------------|
|------------|
|-----9------|
|-----9------|
|-----7------|
|------------|

Also this is hard to point out, but matt mays and el torpedo recently lost their 3rd guitar player. However not instead of him playing an Em before the main riff, matt actually uses his middle and ring finger to make the Em chord and lets it ring out while playing the riff with his index and pinky finger.....just in case anyone wated to kno.

-2 reply
Sean2142 wrote on July 5 2007, 11:12 am

the lead guitar bit is totally wrong

+3 reply
the_bear_shark wrote on August 2 2007, 04:41 pm

why was this rated as 1 star? its a good tab

I want to post or [tab]
guest
You may want to rate the tab now too:
select rating
Please do not post tabs as comments. Select "correction" instead!