Oops, an error
Loading. Please wait.

On The Hood Tab

version 2
version 2

Whole song

2,188 views 1 this week
no commentswrite comment
1 2 3 4 5
please rate
add to favorites
launch autoscroll
font size
0
reset
how to read this tab
guitar tuner
Autoscroll
slow
fast
+/-
esc
set tempo
stop
Help us to improve Ultimate-Guitar.com Take our survey!
×
Guitar
Main Riff/Verses

Acoustic
|--------------------------------------------------------3--3--3--3---------|
|------8---8-----8-----10-----10-10--10------5---5---5---5--5--5--5---------|
|------9---9-----9-----9------9--9---9-------4---4---4---4--4--4--4---------|
|------10--10----10----10-----10-10--10------5---5---5---3--3--3--3---------|
|---------------------------------------------------------------------------|
|---------------------------------------------------------------------------|
Electric
Palm mute during the verses, open up a little during the chorus and outro
|---------------------------------------------------------------------|
|---------------------------------------------------------------------|
|---------------------------------------------------------------------|
|--5-5-5--2-2-2-2-2-2-------------------------------------------------|
|--3-3-3--0-0-0-0-0-0--2-2-2--5-5-5-5-5-5-----------------------------|
|----------------------0-0-0--3-3-3-3-3-3-----------------------------|


Pre-chorus
|---------------------------------------------------|
|--1-------------------------1----------------------|
|--0-------------------------2----------------------| x2
|--2----2----2--2--2--2------2--2--2--2--2--2-------|
|--3-------3---3--3--3-------0----0--0--0--0--------|
|---------------------------------------------------|
Chorus:
Same acoustic chord progression, with this lead over it. A little bit of wah helps to 
that sweet Matt tone.
|-----------8------------------8----------------8-----|
|-------8b10-10b8-----8----8b10-10b8------------------|
|-----------------7b9-9b7-----------8~~~~~~~~---------|
|-----------------------------------------------------|
|-----------------------------------------------------|
|-----------------------------------------------------|

Solo: Played with a slide but you don't need one to play it, you can play it with bends 
it will sound find but here is the slide verion
|------------------------------------------------------------|
|/13~13~13~13~13/13\\\\\8\\\\\\8\\\\6\\\\5~-----5-5~ 6\5/6/8-|
|--------------^Slide this note out-----------4/5------------|
|---------------and the next one in--------------------------|
|------------------------------------------------------------|
|------------------------------------------------------------|


|--12-12-12-12\\10-10----------------------------------------|
|--13-13-13-13\\12-12----------------------------------------|
|-----------------------------7/9\\7\\5~---------------------|
|------------------------------------------------------------|
|------------------------------------------------------------|
|------------------------------------------------------------|

That's basically it. This is my first tab so I'm sorry if there are any parts that have 
scratching your head. Enjoy Matt's great music!

Ben K.G
Suggest correction
Give kudos to tab author, rate the tab!
1 2 3 4 5
comments
print report bad tab
guest
You may want to rate the tab now too:
select rating
Wanna post a correction for this tab? Suggest correction