Oops, an error
Loading. Please wait.

Angel Tab

version 1
version 1

Whole song

35,920 views 6 this week
1 commentread comment
1 2 3 4 5
x 17
add to favorites
launch autoscroll
font size
0
reset
how to read this tab
guitar tuner
Autoscroll
slow
fast
+/-
esc
set tempo
stop
Help us to improve Ultimate-Guitar.com Take our survey!
×
Author
okay...this is the 1st song ive ever tabbed...so here it goes...

verse:
e------3----3---3----3----3-----3-----3-----3----------------------|
b------3----3---3----3----3-----3-----3-----3----------------------|
g------------------------------------------------------------------|
d----------------------------------0------0------------------------|
a------------------2----3----3-------------------------------------|
E--3-----3---3-----------------------------------------------------|

Chorus:"Angel, you sing..."

e----3-------------3----------3--------3---------------------------------|
b----3-------------3----------3--------3---------------------------------|
g------------------------------------------------------------------------|
d------x4-------0----x4---------x4------------x4-------------------------|
a------------------------------------3-----------------------------------|
E--3------------------------0--------------------------------------------|

i didnt tab the bridge but its easy enough for you to figure out.... thats all there is 
this song...not too bad...thanks for checkin this tab out...rate it please!!!!
Suggest correction
comments
print report bad tab
1 comment total.
+4 reply
Floor Demon 1,663 Feb 08, 2005 12:00 AM

The bridge is

E-----------------
B----------3------
G--------0--------
D------4----------
A----5------------
E-----------------

guest
You may want to rate the tab now too:
select rating
Wanna post a correction for this tab? Suggest correction