Oops, an error
Loading. Please wait.

Answering Machine Tab

10,572 views 3 this week
2 commentsread comments
1 2 3 4 5
excellent!
x 6
add to favorites
launch autoscroll
font size
0
reset
how to read this tab
guitar tuner
Tab Pro tools
  • play this tab
  • loop segment
  • change instrument
  • show fretboard
  • metronome
×
Best way to learn
"Answering Machine"
Autoscroll
slow
fast
+/-
esc
set tempo
stop
Standard Tuning 

Matt plays it on a 12 string, but it still sounds like the song on a 6-string

INTRO:
-----------------------------------------------------------------------------
-----------------------------------------------------------------------------
-----------------9h11-9-7-6--------------------------------------------------
-9h11-11-11-9-11-0----0-0-0-9h11-11-11-9-11b-11-9-7--------------------------
-0-----0--0-0--0------------0-----0--0-0--0---0-0-0--------------------------
-----------------------------------------------------------------------------

VERSE:                                                                             
A5                A/C#     Asus4/D                     E5       
-----------------------------------------------------------------------------
---------------------------10-10-10-10-10-10-10-10-10------------------------
-9-9-9-9-9-9--9-9-9-9-9-9---9--9--9--9--9--9--9--9--9------------------------
-7-7-7-7-7-7--7-7-7-7-7-7---0--0--0--0--0--0--0--0--0--9-9-------------------
-0-0-0-0-0-0--x-x-x-x-x-x---x--x--x--x--x--x--x--x--x--7-7-------------------
--------------9-9-9-9-9-9--10-10-10-10-10-10-10-10-10--0-0-------------------
                                                                              

F#maj7               A5                 D            E
--x--x--x--x--x--x---x--x--x--x--x--x---2-2-2-2-2-2--0-0-0-------------------
-10-10-10-10-10-10--10-10-10-10-10-10---3-3-3-3-3-3--0-0-0-------------------
--9--9--9--9--9--9---9--9--9--9--9--9---2-2-2-2-2-2--1-1-1-------------------
--x--x--x--x--x--x---x--x--x--x--x--x---0-0-0-0-0-0--2-2-2-------------------
--9--9--9--9--9--9---7--7--7--7--7--7----------------2-2-2-------------------
--x--x--x--x--x--x---x--x--x--x--x--x----------------0-0-0-------------------

pre-chorus

 D                 A6    Esus4  E
-2-2-2-2-2-2-2-2----------0-0---0-0------------------------------------------
-3-3-3-3-3-3-3-3----------0-0---0-0------------------------------------------
-2-2-2-2-2-2-2-2---2-2-2--2-2p1-1-1------------------------------------------
-0-0-0-0-0-0-0-0---2-2-2--2-2---2-2------------------------------------------
-------------------x-x-x--2-2---2-2------------------------------------------
-------------------2-2-2--0-0---0-0------------------------------------------
                                                                             
chorus:

 A9       D9       A9       E
-0-0-0-0--0-0-0-0--0-0-0-0--0-0-0-0------------------------------------------
-0-0-0-0--3-3-3-3--0-0-0-0--0-0-0-0------------------------------------------
-2-2-2-2--2-2-2-2--2-2-2-2--1-1-1-1------------------------------------------
-2-2-2-2--0-0-0-0--2-2-2-2--2-2-2-2------------------------------------------
-0-0-0-0-----------0-0-0-0--2-2-2-2------------------------------------------
-0-0-0-0-----------0-0-0-0--0-0-0-0------------------------------------------
 
post-chorus:                                                                            
 A6     E      A      D   D/F#     E
-0-0-0--0-0-0--0-0-0--2-2-2-2-2-2--0-0---------------------------------------
-0-0-0--0-0-0--2-2-2--3-3-3-3-3-3--0-0---------------------------------------
-2-2-2--1-1-1--2-2-2--2-2-2-2-2-2--1-1---------------------------------------
-2-2-2--2-2-2--2-2-2--0-0-0-0-0-0--2-2--9h11-11-11-9-11b-11-9-7--------------
-x-x-x--2-2-2--0-0-0------x-x-x-x--2-2--0-----0--0-0--0---0-0-0--------------
-2-2-2--0-0-0--0-0-0------2-2-2-2--0-0---------------------------------------
           
                                                                 
 D/F# E    A6       D    A     D    A    E
-2-2--0-0--0-----0--2-2--0-0--2-2--0-0--0-0----------------------------------
-3-3--0-0--0-----0--3-3--2-2--3-3--2-2--0-0----------------------------------
-2-2--1-1--2p0h2-2--2-2--2-2--2-2--2-2--1-1----------------------------------
-0-0--2-2--2-----2--0-0--2-2--0-0--2-2--2-2----------------------------------
-x-x--2-2--x-----x-------0-0-------0-0--2-2----------------------------------
-2-2--0-0--2-----2-------0-0-------0-0--0-0----------------------------------
comments
print report bad tab
2 comments total.
0 reply
Schwabee wrote on December 26 2007, 11:22 pm

excellent tab 5 stars.

0 reply
Suspended Chaos wrote on March 11 2009, 07:32 am

absolutely excellent tab.

I want to post or [tab]
guest
You may want to rate the tab now too:
select rating
Please do not post tabs as comments. Select "correction" instead!