Oops, an error
Loading. Please wait.

Car Crash Tab

16,033 views 3 this week
1 commentread comment
1 2 3 4 5
excellent!
x 3
add to favorites
launch autoscroll
font size
0
reset
how to read this tab
guitar tuner
Tab Pro tools
  • play this tab
  • loop segment
  • change instrument
  • show fretboard
  • metronome
×
Best way to learn
"Car Crash"
Autoscroll
slow
fast
+/-
esc
set tempo
stop
Difficulty
intermediate
Matt Nathanson
Car Crash

Down 1/2 step

Tab by Royce

Intro
Eb -------------|
Bb --10---------|
Gb --9----------|
Db --7----------|
Ab -------------|
Eb -------------|

Verse - "I'm wide awake..."
Eb -------------------------------------------|
Bb --10--10--10-------------------------------|
Gb --9---9---9--------------------------------|
Db --7---x---x--------------------------------|
Ab ------9---7--------------------------------|
Eb -------------------------------------------|

"cause I keep on falling..."
Eb -------------------------------------------|
Bb --10---------------------------------------|
Gb --9----------------------------------------|
Db --7----------------------------------------|
Ab -------------------------------------------|
Eb -------------------------------------------|


(Matt plays this part both ways)
Chorus - "I wanna feel the car crash..."
Eb -------------------------|
Bb -------------------------|
Gb --11---9---7-------------|
Db --11---9---7---7---------|   (Full Band)
Ab --9----7---5---7---------|
Eb ---------------5---------|

or

Eb ----------------------|
Bb ---10--10---10---10---|
Gb ---9---9----9----9----|
Db ---x---x----x----x----|    (solo)
Ab ---9---7----5----x----|
Eb -----------------5----|


Bridge
Eb ---2---------2------------2----|
Bb ---3---10----3------------3----|
Gb ---2---9-----2----2---1---2----|
Db -------7----------2---2--------|
Ab ----------------------2--------|
Eb -------------------------------|


The picking part after the bridge
Eb ------------------------------------------|
Bb -----------------10-10-10--9-9-9----------|
Gb ----------9-9-9------------------9-9-9-9--|
Db ---7-7-7----------------------------------|
Ab ------------------------------------------|
Eb ------------------------------------------|
comments
We did not receive enough feedback on this tab! Please rate:
print report bad tab
1 2 3 4 5
1 comment total.
0 reply
captaincam141 wrote on October 12 2012, 03:04 pm

Excellent job on this, very accurate, Hollaaaaa

I want to post or [tab]
guest
You may want to rate the tab now too:
select rating
Please do not post tabs as comments. Select "correction" instead!