Oops, an error
Loading. Please wait.

Pretty The World Tab

4,227 views 1 this week
no commentswrite comment
1 2 3 4 5
please rate
add to favorites
launch autoscroll
font size
0
reset
how to read this tab
guitar tuner
Tab Pro tools
  • play this tab
  • loop segment
  • change instrument
  • show fretboard
  • metronome
×
Best way to learn
"Pretty The World"
Autoscroll
slow
fast
+/-
esc
set tempo
stop
Contributor
Matt Nathanson - Pretty the World


This is played on a standard tuned 12 string acoustic, so will sound a bit dodgy when 
on a six string. I dont think its exactly right either.

h= hammer-on
s= slide


Intro x2
----------------------------------------------------|
----------------------------------------------------|
----------------------------------------------------|
--6-7--6-7s9-7--12-11--2h4-2--2h4 2--2h4 2(h4s)9-7--|
--0-0--0-0-0-0---0--0--0-0-0--0---0--0---0-----0-0--|
----------------------------------------------------|
                      (h4s is fast, but really not needed)
then this
  E    D
-------------|
-------------|
-9999-77--7--|
-9999-77--7--|
-7777-55--5--|
-------------|



Verse
not sure if this anywhere near right
----------------------------------------------|
----------------------------------------------|
----2---2---2---2---1-------------------------|
----2---2---2---2---2-------------------------|
----0---4---5---4---2-------------------------|
----------------------------------------------|


First Chorus
   C     A     E     F#m    C     A     E
--8-----5-----0-----2------8-----5-----0-----|
--8-----5-----0-----2------8-----5-----0-----|
--9-----6-----1-----2------9-----6-----1-----|
-10-----7-----2-----4-----10-----7-----2-----|
-10-----7-----2-----4-----10-----7-----2-----|
--8-----5-----0-----2------8-----5-----0-----|
show me...                         cuz i...


no last E when going from chorus to bridge


Bridge                   Bridge part 2
Gsus/A?  D   A   E
-----------------------|-------5------5------5-------5---|
-10--------------0-----|---------5------5------5-------5-|
-12------7-------1-----|---------------------------------|
-12------7---7---2-----|---------------------------------|
-10------5---7---2-----|---00------00--------------------|
-------------5---0-----|------------------22-----22------|


Intro
Verse
Chorus
Intro
Verse
Chorus
Bridge
Bridge part 2
Chorus
Bridge part 2
comments
We did not receive enough feedback on this tab! Please rate:
print report bad tab
1 2 3 4 5
I want to post or [tab]
guest
You may want to rate the tab now too:
select rating
Please do not post tabs as comments. Select "correction" instead!