Oops, an error
Loading. Please wait.

Queen Of Knots Bass Tab

665 views 1 this week
no commentswrite comment
1 2 3 4 5
3 more votes to show rating
add to favorites
launch autoscroll
font size
0
reset
guitar tuner
Autoscroll
slow
fast
+/-
esc
set tempo
stop
Help us to improve Ultimate-Guitar.com Take our survey!
×
Author
Difficulty
			     Queen of (K)nots – Matt Nathanson

Tabbed By : Transmission24	
e-mail: rimpkin@yahoo.com

Tuning: Standard

After the first verse, during the guitar riff (0:43)
G|---------------------------------------------------------------------------|
D|---------------------------------------------------------------------------|
A|---------------------------------------------------------------------------|
E|----2----2-----------------------------------------------------------------|

Pre-Chorus (0:52)
G|---------------------------------------------------------------------------|
D|---------------------------------------------------------------------------|
A|----55--55--22--22-4-55--55--22--75----------------------------------------|
E|---------------------------------------------------------------------------|

No bass in first chorus

After the first verse, during the guitar riff (1:21)
G|---------------------------------------------------------------------------|
D|---------------------------------------------------------------------------|
A|---------------------------------------------------------------------------|
E|----2----2-----------------------------------------------------------------|

Verse (1:28)x2
G|---------------------------------------------------------------------------|
D|---------------------------------------------------------------------------|
A|--------------------22--22-------------------------------------------------|
E|----22--22--55--55----------22--22-----------------------------------------|

Pre-Chorus (1:57)
G|---------------------------------------------------------------------------|
D|---------------------------------------------------------------------------|
A|----55--55--22--22-4-55--55--22--75----------------------------------------|
E|---------------------------------------------------------------------------|

Chorus (2:11)
G|---------------------------------------------------------------------------|
D|---------------------------------------------------------------------------|
A|--------55----------------55-----------------------------------------------|
E|----22------55--5500--22------55--5500-------------------------------------|

Bridge (2:24)
G|---------------------------------------------------------------------------|
D|---------------------------------------------------------------------------|
A|------------------------------------------22222224-55555555----------------|
E|----5555-7777-22222222-5555-7777-22222222----------------------------------|

Guitar Riff (2:45)
G|---------------------------------------------------------------------------|
D|---------------4-----------------------------------------------------------|
A|---------------------------------------------------------------------------|
E|----2-252-2-252------------------------------------------------------------|

Pre-Chorus (3:02)
G|---------------------------------------------------------------------------|
D|---------------------------------------------------------------------------|
A|----555545555--2222222-4-555545555--22227755-------------------------------|
E|---------------------------------------------------------------------------|

Chorus (3:16)
G|---------------------------------------------------------------------------|
D|---------------------------------------------------------------------------|
A|--------55----------------55-----------------------------------------------|
E|----22------55--5500--22------55--5500-------------------------------------|

Chorus (3:31)x2
G|---------------------------------------------------------------------------|
D|---------------------------------------------------------------------------|
A|--------5555--------------5555---------------------------------------------|
E|----2222----5555-5500-2222----5555-5500------------------------------------|

End (4:00)
G|---------------------------------------------------------------------------|
D|---------------------------------------------------------------------------|
A|---------------------------------------------------------------------------|
E|----2----2----2------------------------------------------------------------|
Suggest correction
Give kudos to tab author, rate the tab!
1 2 3 4 5
comments
print report bad tab
guest
You may want to rate the tab now too:
select rating
Wanna post a correction for this tab? Suggest correction