Oops, an error
Loading. Please wait.

Queen Of Knots Tab

4 views 1 this week
no commentswrite comment
1 2 3 4 5
3 more votes to show rating
add to favorites
launch autoscroll
font size
0
reset
how to read this tab
guitar tuner
Autoscroll
slow
fast
+/-
esc
set tempo
stop
Help us to improve Ultimate-Guitar.com Take our survey!
×
Author
Difficulty
intermediate
About this tab version
This is a tab version of the whole song, including lyrics. Was this info helpful? Yes No
[Intro]
e|---------------------------------------------------------------------------|
B|---------------------------------------------------------------------------|
G|---------------------------------------------------------------------------|
D|------------------------4-------x4-----------------------------------------|
A|---------------------------------------------------------------------------|
E|--2---2-5-2---2---2-5-2----------------------------------------------------|


[Verse]
e|-----------|-----------|-----------|-----------|---------------|
B|-----------|-----------|-----------|-----------|---------------|
G|-----------|-----------|-----------|-----------|---------------|
D|-----------|-----------|-----------|-----------|---------------|
A|-----------|-----------|-2-2---2-2-|-----------|--------x2-----|
E|-2-2---2-2-|-5-5---5-5-|-----------|-2-2---2-2-|---------------|

you blew through me
like a hurricane
got me twisted, oh
you got me twisted
you promised blue skys
and brought the rain
and I went missing, oh
I went missing

e|---------------------------------------------------------------------------|
B|---------------------------------------------------------------------------|
G|---------------------------------------------------------------------------|
D|------------------------4-------x2-----------------------------------------|
A|---------------------------------------------------------------------------|
E|--2---2-5-2---2---2-5-2----------------------------------------------------|


[Pre-Chorus]
e|-------------|-------------|-------------|---------------------------------|
B|-------------|-------------|-------------|---------------------------------|
G|-7--7--7-7-7-|-7--7--7-7-7-|-4--4--4-4-4-|-4--4--4-4-4---------------------|
D|-7--7--7-7-7-|-7--7--7-7-7-|-4--4--4-4-4-|-4--4--4-4-4---------------------|
A|-5--5--5-5-5-|-5--5--5-5-5-|-2--2--2-2-2-|-2--2--2-2-2---------------------|
E|-------------|-------------|-------------|---------------------------------|

e|-------------|-------------|--------------|--------------------------------|
B|-------------|-------------|--------------|--------------------------------|
G|-7--7--7-7-7-|-7--7--7-7-7-|--4--4--4-4-4-|-9--9--9-9-9--------------------|
D|-7--7--7-7-7-|-7--7--7-7-7-|--4--4--4-4-4-|-9--9--9-9-9--------------------|
A|-5--5--5-5-5-|-5--5--5-5-5-|--2--2--2-2-2-|-7--7--7-7-7--------------------|
E|-------------|-------------|--------------|--------------------------------|

while I was sleeping
you robbed me blind
drunk on your power
your sweet turned sour


[Chorus]
e|----------------------|----------------------------------------------------|
B|----------------------|----------------------------------------------------|
G|-11--7----------------|--11--7---------------------------------------------|
D|-11--7---7---7-7-2-2--|--11--7---7---7-7-2-2-------------------------------|
A|-9---5---7---7-7-2-2--|--9---5---7---7-7-2-2-------------------------------|
E|---------5---5-5-0-0--|----------5---5-5-0-0-------------------------------|

you sent me sailing into the rocks
my queen of (K)nots
your hearts a jungle of bar fights
lonely little queen of (K)nots
you must be lost

e|---------------------------------------------------------------------------|
B|---------------------------------------------------------------------------|
G|---------------------------------------------------------------------------|
D|------------------------4-------x2-----------------------------------------|
A|---------------------------------------------------------------------------|
E|--2---2-5-2---2---2-5-2----------------------------------------------------|


[Verse]
e|-----|-----|-----|-----|-----|-----|-----|---------------------------------|
B|-----|-----|-----|-----|-----|-----|-----|---------------------------------|
G|-----|-----|-----|-----|-----|-----|-----|---------------------------------|
D|-----|-----|-----|-----|-----|-----|-----|---------------------------------|
A|-----|-----|-----|-----|-2-2-|-2-2-|-----|--------------x2-----------------|
E|-2-2-|-2-2-|-5-5-|-5-5-|-----|-----|-2-2-|-2-2-----------------------------|

you sounded desperate
you bought your friends
they hang like targets
such easy targets
I never seen aim so steady
no no I've never seen a mine so bent
you pull the trigger
you're cold like winter


[Pre-Chorus]
e|-------------|-------------|-------------|---------------------------------|
B|-------------|-------------|-------------|---------------------------------|
G|-7--7--7-7-7-|-7--7--7-7-7-|-4--4--4-4-4-|-4--4--4-4-4---------------------|
D|-7--7--7-7-7-|-7--7--7-7-7-|-4--4--4-4-4-|-4--4--4-4-4---------------------|
A|-5--5--5-5-5-|-5--5--5-5-5-|-2--2--2-2-2-|-2--2--2-2-2---------------------|
E|-------------|-------------|-------------|---------------------------------|

e|-------------|-------------|--------------|--------------------------------|
B|-------------|-------------|--------------|--------------------------------|
G|-7--7--7-7-7-|-7--7--7-7-7-|--4--4--4-4-4-|-9--9--9-9-9--------------------|
D|-7--7--7-7-7-|-7--7--7-7-7-|--4--4--4-4-4-|-9--9--9-9-9--------------------|
A|-5--5--5-5-5-|-5--5--5-5-5-|--2--2--2-2-2-|-7--7--7-7-7--------------------|
E|-------------|-------------|--------------|--------------------------------|

the spell I was under
of your see through skin
I was drunk on your power
and turned you louder


[Chorus]
e|----------------------|----------------------------------------------------|
B|----------------------|----------------------------------------------------|
G|-11--7----------------|--11--7---------------------------------------------|
D|-11--7---7---7-7-2-2--|--11--7--7---7-7-2-2--------------------------------|
A|-9---5---7---7-7-2-2--|--9---5--7---7-7-2-2--------------------------------|
E|---------5---5-5-0-0--|---------5---5-5-0-0--------------------------------|

you sent me sailing into the rocks
my queen of (K)nots
your hearts a jungle of bar fights
lonely little queen of (K)nots
you must be lost


[Outro]

e|-----------------------------------------------------------------------------------------|
B|-----------------------------------------------------------------------------------------|
G|-----------------------------------------------------------------------------------------|
D|-7-7-7-7-|-9-9-9-9-|-4-4-4-4-|-4-4-4-4-|-7-7-7-7-|-9-9-9-9-|-4-4-4-4-|-4-4-4-4-----------|
A|-7-7-7-7-|-9-9-9-9-|-4-4-4-4-|-4-4-4-4-|-7-7-7-7-|-9-9-9-9-|-4-4-4-4-|-4-4-4-4-----------|
E|-5-5-5-5-|-7-7-7-7-|-2-2-2-2-|-2-2-2-2-|-5-5-5-5-|-7-7-7-7-|-2-2-2-2-|-2-2-2-2-----------|

e|---------------------------------------------------------------------------------|
B|---------------------------------------------------------------------------------|
G|-4-4-4-4-|-4-4-4-4-|-7-7-7-7-|-7-7-7-7-------------------------------------------|
D|-4-4-4-4-|-4-4-4-4-|-7-7-7-7-|-7-7-7-7-------------------------------------------|
A|-2-2-2-2-|-2-2-2-2-|-5-5-5-5-|-5-5-5-5-------------------------------------------|
E|---------------------------------------------------------------------------------|

I won't be there when the love comes out
I won't be there when the word gets (round?)
cause your someone elses baby
you're someone elses crazy, now

e|---------------------------------------------------------------------------|
B|---------------------------------------------------------------------------|
G|---------------------------------------------------------------------------|
D|------------------------4-------x4-----------------------------------------|
A|---------------------------------------------------------------------------|
E|--2---2-5-2---2---2-5-2----------------------------------------------------|


[Pre-Chorus]
e|-------------|-------------|-------------|---------------------------------|
B|-------------|-------------|-------------|---------------------------------|
G|-7--7--7-7-7-|-7--7--7-7-7-|-4--4--4-4-4-|-4--4--4-4-4---------------------|
D|-7--7--7-7-7-|-7--7--7-7-7-|-4--4--4-4-4-|-4--4--4-4-4---------------------|
A|-5--5--5-5-5-|-5--5--5-5-5-|-2--2--2-2-2-|-2--2--2-2-2---------------------|
E|-------------|-------------|-------------|---------------------------------|

e|-------------|-------------|----------------------------------------------|
B|-------------|-------------|----------------------------------------------|
G|-7--7--7-7-7-|-7--7--7-7-7-|-4--4--4-4-4---9--9--9-9-9--------------------|
D|-7--7--7-7-7-|-7--7--7-7-7-|-4--4--4-4-4---9--9--9-9-9--------------------|
A|-5--5--5-5-5-|-5--5--5-5-5-|-2--2--2-2-2---7--7--7-7-7--------------------|
E|-------------|-------------|----------------------------------------------|

while I was sleeping
you robbed me blind
drunk on your powers
your sweet turned, sour


[Chorus]
e|----------------------|----------------------------------------------------|
B|----------------------|----------------------------------------------------|
G|-11--7----------------|--11--7---------------------------------------------|
D|-11--7---7---7-7-2-2--|--11--7---7---7-7-2-2---------------x3--------------|
A|-9---5---7---7-7-2-2--|--9---5---7---7-7-2-2-------------------------------|
E|---------5---5-5-0-0--|----------5---5-5-0-0-------------------------------|

e|---------------------------------------------------------------------------|
B|---------------------------------------------------------------------------|
G|---------------------------------------------------------------------------|
D|------------------------4-------x2-----------------------------------------|
A|---------------------------------------------------------------------------|
E|--2---2-5-2---2---2-5-2---------------------2------------------------------|

you sent me sailing into the rocks
my queen of (K)nots
your hearts a jungle of bar fights
my queen of (K)nots
you must be lost

your hearts a stumbling block
you're my queen on (K)nots, come-on
you're hearts a jungle of bar fights
lonely little queen of (K)nots
you must be lost

I won't be there
I won't be there


***********************************

| h   Hammer-on
| /   Slide-up

***********************************
Suggest correction
Give kudos to tab author, rate the tab!
1 2 3 4 5
comments
print report bad tab
guest
You may want to rate the tab now too:
select rating
Wanna post a correction for this tab? Suggest correction