Oops, an error
Loading. Please wait.

Wedding Dress Tab

16,475 views 1 this week
3 commentsread comments
1 2 3 4 5
x 3
add to favorites
launch autoscroll
font size
0
reset
how to read this tab
guitar tuner
Autoscroll
slow
fast
+/-
esc
set tempo
stop
Help us to improve Ultimate-Guitar.com Take our survey!
×
Author
Difficulty
Tuning
novice
D# G# C# F# A# D#
Half step down

The intro is the same as the chorus


First/second verse:

---0------3---------------3---|
---0------3---------------3---|
---0------0---------------2---|
---2------0---------------0---|
---2------2---------------0---|
---0------3---------------0---|


"To be with you..."
---0----3------------0---------3-|
---0----3------------0---------3-|
---0----0------------0---------0-|
---2----0------------2---------0-|
---2----2------------2---------2-|
---0----3------------0---------3-|


Chorus:

---0------3--------3---------0-|
---7------3--------3---------2-|
---7------0--------2---------2-|
---0------0--------0---------2-|
---0------2--------0---------0-|
---7------3--------0---------0-|

Third Verse:

---3------2-----0-------2---0---3-------2----0---3---2---0|
---3------3-----2-------3---2---3-------3----0---3---3---2|
---0------2-----2-------2---2---0-------2----0---0---2---2|
---0------0-----2-------0---2---0-------0----2---0---0---2|
---2------0-----0-------0---0---2-------0----2---2---0---0|
---3------0-----0-------0---0---3-------0----0---3---0---0|




That's pretty much it.
Suggest correction
Give kudos to tab author, rate the tab!
1 2 3 4 5
comments
print report bad tab
3 comments total.
0 reply
ocelott 30 May 03, 2008 01:12 AM

i'll give this a shot later.

0 reply
marino13 42 May 14, 2009 09:11 PM

good job as far as i can tell except on the chorus. The first chord is just g/b and the reach to the 7 is very hard to do so its just easier (and it sounds good) if you just play an open low E.

0 reply
Meizu 10 Feb 06, 2010 07:18 AM

I'm the one who gave it one star, sounds totally wrong, if you want something really close to the one Matt plays, go here

http://www.prettytheworld.com/tabs/Wedding_Dress.txt

guest
You may want to rate the tab now too:
select rating
Wanna post a correction for this tab? Suggest correction