Oops, an error
Loading. Please wait.

Party tab

161 views 1 this week
no commentswrite comment
1 2 3 4 5
3 more votes to show rating
add to favorites
×
Save as Personal and add changes to this tab that will be seen only by you. Learn more ›
×
You can save this tab as Personal to edit and correct it or add notes. All changes will be seen only by you. Learn more »
launch autoscroll
font size
0
reset
how to read this tab
guitar tuner
edit
Autoscroll
slow
fast
+/-
esc
set tempo
stop
Title:  'The Party'
Artist: matt pond PA (mattpondpa.com)
Album:  The Nature Of Maps
Tabbed by Jorge Díaz (j_diaz_s@yahoo.com)


 Note: Tune the 6th string from E to G.
       Tune the 5th String from A to G.
       Tune the 1st string from E to D.
       Use Capo on 3rd Fret


 Intro:


D ------------------------------------------------|
B ------------------------------------------------|
G --7--7--7-7--7----7--7--7-7--7----7--7--7-7--7--|
D --7--7--7-7--7----7--7--7-7--7----7--7--7-7--7--|
G --7--7--7-7--7----7--7--7-7--7----7--7--7-7--7--|
G --7--7--7-7--7----7--7--7-7--7----7--7--7-7--7--|



 Verse 1: (0:38)

D ------------------------------------0--0--0-0--0------------------|
B ------------------------------------0--0--0-0--0------------------|
G --7--7--7-7--7----7--7--7-7--7------0--0--0-0--0----7--7--7-7--7--|
D --7--7--7-7--7----7--7--7-7--7------0--0--0-0--0----7--7--7-7--7--|
G --7--7--7-7--7----7--7--7-7--7------0--0--0-0--0----7--7--7-7--7--|
G --7--7--7-7--7----7--7--7-7--7------0--0--0-0--0----7--7--7-7--7--|
  If you wake, Up to the prize,     Of yourself, and all your eyes

D ------------------------------------0--0--0-0--0------------------|
B ------------------------------------0--0--0-0--0------------------|
G --7--7--7-7--7----7--7--7-7--7------0--0--0-0--0----7--7--7-7--7--|
D --7--7--7-7--7----7--7--7-7--7------0--0--0-0--0----7--7--7-7--7--|
G --7--7--7-7--7----7--7--7-7--7------0--0--0-0--0----7--7--7-7--7--|
G --7--7--7-7--7----7--7--7-7--7------0--0--0-0--0----7--7--7-7--7--|
  Then nothing will, Be just like this, and nothing is, About your will



D ------------------------------------------------|
B ------------------------------------------------|
G --7--7--7-7--7----7--7--7-7--7----7--7--7-7--7--|
D --7--7--7-7--7----7--7--7-7--7----7--7--7-7--7--|
G --7--7--7-7--7----7--7--7-7--7----7--7--7-7--7--|
G --7--7--7-7--7----7--7--7-7--7----7--7--7-7--7--|



 Verse 2: (1:23)

D ------------------------------------0--0--0-0--0------------------|
B ------------------------------------0--0--0-0--0------------------|
G --7--7--7-7--7----7--7--7-7--7------0--0--0-0--0----7--7--7-7--7--|
D --7--7--7-7--7----7--7--7-7--7------0--0--0-0--0----7--7--7-7--7--|
G --7--7--7-7--7----7--7--7-7--7------0--0--0-0--0----7--7--7-7--7--|
G --7--7--7-7--7----7--7--7-7--7------0--0--0-0--0----7--7--7-7--7--|
  The names are sitting on the phone, inside where words are left behind

D ------------------------------------0--0--0-0--0------------------|
B ------------------------------------0--0--0-0--0------------------|
G --7--7--7-7--7----7--7--7-7--7------0--0--0-0--0----7--7--7-7--7--|
D --7--7--7-7--7----7--7--7-7--7------0--0--0-0--0----7--7--7-7--7--|
G --7--7--7-7--7----7--7--7-7--7------0--0--0-0--0----7--7--7-7--7--|
G --7--7--7-7--7----7--7--7-7--7------0--0--0-0--0----7--7--7-7--7--|
  It's hard to hear them coming out, when there's enough of everything



 Chorus: (1:49)

D ----0--0--0-0--0----0--0--0-0--0------------------|
B ----0--0--0-0--0----0--0--0-0--0------------------|
G ----0--0--0-0--0----0--0--0-0--0----7--7--7-7--7--|
D ----0--0--0-0--0----0--0--0-0--0----7--7--7-7--7--|
G ----0--0--0-0--0----0--0--0-0--0----7--7--7-7--7--|
G ----0--0--0-0--0----0--0--0-0--0----7--7--7-7--7--|
  Next weekend there's a party and it's good to have these goals

D --0--0--0-0--0----0--0--0-0--0---0--0--0-0--0----0--0--0-0--0--|
B --0--0--0-0--0----0--0--0-0--0---0--0--0-0--0----0--0--0-0--0--|
G --0--0--0-0--0----0--0--0-0--0---0--0--0-0--0----0--0--0-0--0--|
D --0--0--0-0--0----0--0--0-0--0---0--0--0-0--0----0--0--0-0--0--|
G --0--0--0-0--0----0--0--0-0--0---0--0--0-0--0----0--0--0-0--0--|
G --0--0--0-0--0----0--0--0-0--0---0--0--0-0--0----0--0--0-0--0--|
  We're finally getting somewhere, These invitations what a thrill



D ------------------------------------------------|
B ------------------------------------------------|
G --7--7--7-7--7----7--7--7-7--7----7--7--7-7--7--|
D --7--7--7-7--7----7--7--7-7--7----7--7--7-7--7--|
G --7--7--7-7--7----7--7--7-7--7----7--7--7-7--7--|
G --7--7--7-7--7----7--7--7-7--7----7--7--7-7--7--|



 (2:22) (This part is played three times)

D ----------------------------------------------------------------|
B ----------------------------------------------------------------|
G --7--7--7-7--7----7--7--7-7--7----7--7--7-7--7----7--7--7-7--7--|
D --7--7--7-7--7----7--7--7-7--7----7--7--7-7--7----7--7--7-7--7--|
G --7--7--7-7--7----7--7--7-7--7----7--7--7-7--7----7--7--7-7--7--|
G --7--7--7-7--7----7--7--7-7--7----7--7--7-7--7----7--7--7-7--7--|
  Sunday night is always bad, Schools not there but you still have

D --0--0--0-0--0----0--0--0-0--0----------------------------------|
B --0--0--0-0--0----0--0--0-0--0----------------------------------|
G --0--0--0-0--0----0--0--0-0--0----7--7--7-7--7----7--7--7-7--7--|
D --0--0--0-0--0----0--0--0-0--0----7--7--7-7--7----7--7--7-7--7--|
G --0--0--0-0--0----0--0--0-0--0----7--7--7-7--7----7--7--7-7--7--|
G --0--0--0-0--0----0--0--0-0--0----7--7--7-7--7----7--7--7-7--7--|
  The weekend that you left behind, It's in between the light and line

D ----------------------------------------------------------------|
B ----------------------------------------------------------------|
G --7--7--7-7--7----7--7--7-7--7----7--7--7-7--7----7--7--7-7--7--|
D --7--7--7-7--7----7--7--7-7--7----7--7--7-7--7----7--7--7-7--7--|
G --7--7--7-7--7----7--7--7-7--7----7--7--7-7--7----7--7--7-7--7--|
G --7--7--7-7--7----7--7--7-7--7----7--7--7-7--7----7--7--7-7--7--|
  It's time to quit from taking calls, And concentrate the evening falls

D --0--0--0-0--0----0--0--0-0--0----------------------------------|
B --0--0--0-0--0----0--0--0-0--0----------------------------------|
G --0--0--0-0--0----0--0--0-0--0----7--7--7-7--7----7--7--7-7--7--|
D --0--0--0-0--0----0--0--0-0--0----7--7--7-7--7----7--7--7-7--7--|
G --0--0--0-0--0----0--0--0-0--0----7--7--7-7--7----7--7--7-7--7--|
G --0--0--0-0--0----0--0--0-0--0----7--7--7-7--7----7--7--7-7--7--|
  That's where it is and what is what, Cover up and cover off



 Chorus: (3:39)

D ----0--0--0-0--0----0--0--0-0--0------------------|
B ----0--0--0-0--0----0--0--0-0--0------------------|
G ----0--0--0-0--0----0--0--0-0--0----7--7--7-7--7--|
D ----0--0--0-0--0----0--0--0-0--0----7--7--7-7--7--|
G ----0--0--0-0--0----0--0--0-0--0----7--7--7-7--7--|
G ----0--0--0-0--0----0--0--0-0--0----7--7--7-7--7--|
  Next weekend there's a party and it's good to have these goals

D --0--0--0-0--0----0--0--0-0--0---0--0--0-0--0----0--0--0-0--0--|
B --0--0--0-0--0----0--0--0-0--0---0--0--0-0--0----0--0--0-0--0--|
G --0--0--0-0--0----0--0--0-0--0---0--0--0-0--0----0--0--0-0--0--|
D --0--0--0-0--0----0--0--0-0--0---0--0--0-0--0----0--0--0-0--0--|
G --0--0--0-0--0----0--0--0-0--0---0--0--0-0--0----0--0--0-0--0--|
G --0--0--0-0--0----0--0--0-0--0---0--0--0-0--0----0--0--0-0--0--|
  We're finally getting somewhere, These invitations what a thrill



 Outro: (4:00)


D ------------------------------------------------|
B ------------------------------------------------|
G --7--7--7-7--7----7--7--7-7--7----7--7--7-7--7--|
D --7--7--7-7--7----7--7--7-7--7----7--7--7-7--7--|
G --7--7--7-7--7----7--7--7-7--7----7--7--7-7--7--|
G --7--7--7-7--7----7--7--7-7--7----7--7--7-7--7--|

            
            
Suggest correction
Creating personal tab
Creating personal tab
You can edit any tab online and save it as your Personal.

You can edit, replace or remove any tab part or add personal notes – all changes will be seen only by you.

Personal tabs can be accessed anytime from any device, even offline.
Learn more »
Give kudos to tab author, rate the tab!
1 2 3 4 5
comments
print report bad tab
guest
You may want to rate the tab now too:
select rating
Wanna post a correction for this tab? Suggest correction