Oops, an error
Loading. Please wait.

10000 Reasons Bless The Lord Tab

version 3
version 3

Intro

  • This tab does't require alot of movement up and do... Show more
  • Simple intro for any acoustic style playing.

Whole song

82 views 1 this week
no commentswrite comment
1 2 3 4 5
3 more votes to show rating
add to favorites
launch autoscroll
font size
0
reset
how to read this tab
guitar tuner
Autoscroll
slow
fast
+/-
esc
set tempo
stop
Help us to improve Ultimate-Guitar.com Take our survey!
×
Author
Difficulty
novice
About this tab version
This tab does't require alot of movement up and down the neck so it is easier to play. Was this info helpful? Yes No
[Intro]

e|-----------12~--12----------------------------------------------| 
B|----12--15---------15--12----12------------------15--12---------| 
G|--------------------------14----14--12--------12--------12--14~-|
D|--------------------------------------14~--14-------------------|
A|----------------------------------------------------------------|
E|----------------------------------------------------------------|

e|-----------12--12--------12--14---------------------------------|
B|----12--15--------15--12--------12~------------12---------------|
G|------------------------------------14--12--14----14~--12--12~--|
D|----------------------------------------------------------------|
A|----------------------------------------------------------------|
E|----------------------------------------------------------------|


God bless! Hope you enjoyed! Please rate and comment!


************************************

| ~  Vibrato

************************************
Suggest correction
Give kudos to tab author, rate the tab!
1 2 3 4 5
comments
print report bad tab
guest
You may want to rate the tab now too:
select rating
Wanna post a correction for this tab? Suggest correction