Oops, an error
Loading. Please wait.

10000 Reasons Bless The Lord Tab

version 3
version 3

Intro

  • This tab does't require alot of movement up and do... Show more
  • Simple intro for any acoustic style playing.

Whole song

  • This tab is Fingerstyle, it is meant to be sung along too.
3,403 views 6 this week
no commentswrite comment
1 2 3 4 5
x 6
add to favorites
launch autoscroll
font size
0
reset
how to read this tab
guitar tuner
Autoscroll
slow
fast
+/-
esc
set tempo
stop
Author
Difficulty
intermediate
-------------------------------------------------------------------------------
                  10,000 Reasons (Bless the Lord) - Matt Redman
-------------------------------------------------------------------------------
Tabbed by: Stinyo7

This is an intro for 10,000 that I found on Youtube and wanted to tab. All
credit to Stephen from guitarmann.com

www.youtube.com/watch?v=Ob0DeVA_aEo

Tuning: Standard
Key: G

Note: The G chord is only the low E on the third fret, everything else is open.


[Intro]

          C              G (Just low E)     D/F#      Em
e|--------0-------0----------------------------------------------------------|
B|--0--3-------------3---0------------0------------------------0-------------|
G|-------------0----------------0h2--------2-h4-2-0--------0-----------------|
D|-----------2--------------0--------------0--0-0-0--------------------------|
A|--------3-------------------------------------------2----------------------|
E|-----------------------3-----------------2--2-2-2---0----------------------|

    C                G (Just low E)      D/F#     Dsus4
e|-------------------------------------------------3-----2-------------------|
B|--1---------3--0---0------------0------3---------3-----3-------------------|
G|--------0-----------------0h2----------2-----------------------------------|
D|-----2----------------0--------------------0--------0----------------------|
A|--3------------------------------------------------------------------------|
E|-------------------3-------------------2-----------------------------------|

************************************

| h   hammer-on

************************************
Suggest correction
comments
print report bad tab
guest
You may want to rate the tab now too:
select rating
Wanna post a correction for this tab? Suggest correction