Oops, an error
Loading. Please wait.

Dancing Generation bass

version 1
version 1

Whole song

23,925 views 12 this week
5 commentsread comments
1 2 3 4 5
x 9
add to favorites
×
Save as Personal and add changes to this tab that will be seen only by you. Learn more ›
×
You can save this tab as Personal to edit and correct it or add notes. All changes will be seen only by you. Learn more »
launch autoscroll
font size
0
reset
guitar tuner
edit
Autoscroll
slow
fast
+/-
esc
set tempo
stop
Author
Difficulty
Dancing Generation - Facedown - Matt Redman


Intro x2
G------------------------|------------------------|
D------------------3-----|-------------------3----|
A-5-3-5------5-3-5-------|-2-0-2------2-0-2-------|
E------------------------|------------------------|

Verse
G------------------------|------------------------|
D------------------3-----|-------------------3----|
A-5-3-5------5-3-5-------|-2-0-2------2-0-2-------|
E------------------------|------------------------|


G------------------------|------------------------|
D------------------3-----|-------------------3----|
A-5-3-5------5-3-5-------|-2-0-2------2-0-2-------|
E------------------------|------------------------|


G------------------------|
D-5--5----------3--------|
A------5--5-3-5----------|
E------------------------|


Build Up
G------------------------|------------------------|
D------------------------|------------------------|
A------------------------|------------------------|
E-0--0--0--0--0--0--0--0-|-2--2--2--2--2--2--2--2-|


G------------------------|------------------------|
D------------------------|------------------------|
A------------------------|------------------------|
E-3--3--3--3--3--3--3--3-|-5--5--5--5--5--5--5--5-|

Chorus/Middle 8 x2
G------------------------|------------------------|
D------------------------|------------------------|
A-5--5--5--5--5--5--5--5-|-7--7--7--7--7--7--7--7-|
E------------------------|------------------------|

G------------------------|------------------------|
D-5--5--5--5--5--5--5--5-|------------------------|
A------------------------|-5--5--5--5--5--5--5--5-|
E------------------------|------------------------|

Bridge
G------------------------|------------------------|
D------------------------|------------------------|
A-5-3-5--5-3-5--5-3-5-3--|-2-0-2--2-0-2--2-0-2-3--|
E------------------------|------------------------|


The whole song is layed out something like like this

Intro x2
Verse x2
Build up
Chorus x2
Verse x2
Build up
Chorus x2
Middle 8
Bridgex2
Verse x2
Build up
Chorus x2

Hope that helped .Please ask me any questions regarding the song

Sam

            
            
Suggest correction
Creating personal tab
Creating personal tab
You can edit any tab online and save it as your Personal.

You can edit, replace or remove any tab part or add personal notes – all changes will be seen only by you.

Personal tabs can be accessed anytime from any device, even offline.
Learn more »
comments
print report bad tab
5 comments total. Showing first comments.
-2 reply
johnstonc 16 Feb 11, 2007 07:46 AM

god, this sucks u got it all rong

-2 reply
johnstonc 16 Mar 16, 2007 08:38 AM

u have no frends and u smell rely bad

+1 reply
cobra21adam 103 Oct 13, 2007 08:49 AM

y is this guy above me looking up christian tabs and then leaving leaving comments lik that??
good job dude

guest
You may want to rate the tab now too:
select rating
Wanna post a correction for this tab? Suggest correction