Oops, an error
Loading. Please wait.

His Name Shall Be Tab

10 views 3 this week
no commentswrite comment
1 2 3 4 5
3 more votes to show rating
add to favorites
launch autoscroll
font size
0
reset
how to read this tab
guitar tuner
Autoscroll
slow
fast
+/-
esc
set tempo
stop
Help us to improve Ultimate-Guitar.com Take our survey!
×
Author
[Intro]

e|-0-----------------|-0-----0--------|-3--------------|----------------|
B|-1-----------------|-1-----1--------|-1--------------|----------------|
G|-0-----------------|-0-----0--------|-0-----------0--|----------------|
D|-2--0--0--0--2--0--|-0--0--2--2--0--|-3--0--0--2-----|-0--0--0--2--0--|
A|-3-----------------|-3-----3--------|-0--------------|----------------|
E|-x-----------------|-x-----x--------|-x--------------|----------------|

e|-0-----3-----0--|-------3-----0-----|
B|-1-----1-----1--|-------1-----1-----|
G|-0-----0-----0--|-------0-----0-----|
D|-2--0--3--2--2--|-0--0--3--2--2-----|
A|-3-----3-----3--|-------3-----3--3--|
E|-x-----x-----x--|-------x-----x-----|

[Verse 1]

e|-0-----------------3--------------|-0--------------------3-----|
B|-1-----------------1--------------|-1--------------------1-----|
G|-0-----0--0--------0--------------|-0-----0--0--------0--0-----|
D|-2--2--------2--3--3--2--2--0-----|-2--2--------2--3-----3-----|
A|-3-----------------3-----------3--|-3--------------------3--3--|
E|-x-----------------x--------------|-x--------------------x-----|

e|-0-----------------1--------------|-1--------------3--|
B|-1-----------------1--------------|-1--------------0--|
G|-0-----0--0--------2--------------|-2--------------0--|
D|-2--2--------2--3--3--2--0--0-----|-0--2--2--0-----0--|
A|-0-----------------x-----------3--|-x-----------3--2--|
E|-x-----------------x--------------|-x--------------3--|

e|-0--------------------------|-0--------3--------3--0--|
B|-1-----0--0-----0--1--1-----|-1--------0--------1--1--|
G|-2--2--------2-----0-----0--|-0--0-----0--------2--0--|
D|-3-----------------2--------|-2-----2--0--0-----3--2--|
A|-x-----------------3--------|-0--------2-----3--x--3--|
E|-x-----------------x--------|-x--------3--------x--0--|

e|-1------------1-----------------|-0--1--0--1--0-----|
B|-1------------3-----------------|-1--1--1--1--1-----|
G|-2--0-0-------1-----------------|-0--0--0--0--0-----|
D|-0------2--3--3--2--0--0--------|-2--3--2--3--2-----|
A|-x------------3-----------3--3--|-3--3--3--3--3--3--|
E|-x------------1-----------------|-x--x--x--x--x-----|

[Verse 2]
e|-0-----------------3--------------|-0--------------------3-----|
B|-1-----------------1--------------|-1--------------------1-----|
G|-0-----0--0--------0--------------|-0-----0--0--------0--0-----|
D|-2--2--------2--3--3--2--2--0-----|-2--2--------2--3-----3-----|
A|-3-----------------3-----------3--|-3--------------------3--3--|
E|-x-----------------x--------------|-x--------------------x-----|

e|-0-----------------1--------------|-1--------------3--|
B|-1-----------------1--------------|-1--------------0--|
G|-0-----0--0--------2--------------|-2--------------0--|
D|-2--2--------2--3--3--2--0--0-----|-0--2--2--0-----0--|
A|-0-----------------x-----------3--|-x-----------3--2--|
E|-x-----------------x--------------|-x--------------3--|

e|-0--------------------------|-0--------3--------3--0--------|
B|-1-----0--0-----0--1--1-----|-1--------0--------1--1--------|
G|-2--2--------2-----0-----0--|-0--0-----0--------2--0--------|
D|-3-----------------2--------|-2-----2--0--0-----3--2--------|
A|-x-----------------3--------|-0--------2-----3--x--3--------|
E|-x-----------------x--------|-x--------3--------x--0--------|

e|-1------------1-----------------|-0-----------------|
B|-1------------3-----------------|-1-----------1-----|
G|-2--0-0-------1-----------------|-0--0--0--3-----3--|
D|-0------2--3--3--2--0--0--------|-2-----------------|
A|-x------------3-----------3--3--|-3-----------------|
E|-x------------1-----------------|-x-----------------|

[Chorus 1]

e|-0---------|-3-------|-0-----|-3--------------------0--|-0--------------0--|
B|-1--1--1---|-1--1-1--|-1--1--|-0--1--3--3--1--3--3-----|-1--1--1-----1-----|
G|-2---------|-2-------|-0-----|-0-----------------------|-2--------2--------|
D|-2---------|-3-------|-2-----|-0-----------------------|-2-----------------|
A|-0---------|-x-------|-3-----|-2-----------------------|-0-----------------|
E|-x---------|-x-------|-x-----|-3-----------------------|-x-----------------|

e|-3---------------|-1---0--3AH-------------|-0---1---0---|-1---0-------|
B|-1---1-----0--1--|-2------0---3--3--------|-1---1---1---|-1---1-------|
G|-2------2--------|-2------0---------2--2--|-0---0---0---|-0---0-------|
D|-3---------------|-0------0---------------|-2---3---2---|-3---2-------|
A|-x---------------|-x------2---------------|-3---3---3---|-3---3----3--|
E|-x---------------|-x------3---------------|-x---x---x---|-x---x-------|

[Verse 3]
e|-0-----------------3--------------|-0--------------------3-----|
B|-1-----------------1--------------|-1--------------------1-----|
G|-0-----0--0--------0--------------|-0-----0--0--------0--0-----|
D|-2--2--------2--3--3--2--2--0-----|-2--2--------2--3-----3-----|
A|-3-----------------3-----------3--|-3--------------------3--3--|
E|-x-----------------x--------------|-x--------------------x-----|

e|-0-----------------1--------------|-1--------------3--|
B|-1-----------------1--------------|-1--------------0--|
G|-0-----0--0--------2--------------|-2--------------0--|
D|-2--2--------2--3--3--2--0--0-----|-0--2--2--0-----0--|
A|-0-----------------x-----------3--|-x-----------3--2--|
E|-x-----------------x--------------|-x--------------3--|

e|-0--------------------------|-0--------3--------3--0--|
B|-1-----0--0-----0--1--1-----|-1--------0--------1--1--|
G|-2--2--------2-----0-----0--|-0--0-----0--------2--0--|
D|-3-----------------2--------|-2-----2--0--0-----3--2--|
A|-x-----------------3--------|-0--------2-----3--x--3--|
E|-x-----------------x--------|-x--------3--------x--0--|

e|-1---------1--1--0--------------|-0-----------3-----|
B|-1--3-3-------3-----3--3-----3--|-1-----------0-----|
G|-2------2-----1-----------2-----|-0--0--0--2--0--3--|
D|-0------------3-----------------|-2-----------0-----|
A|-x------------3-----------------|-3-----------2-----|
E|-x------------1-----------------|-x-----------x-----|

[Chorus 2]
e|-0---------|-3-------|-0-----|-3--------------------0--|-0--------------0--|
B|-1--1--1---|-1--1-1--|-1--1--|-0--1--3--3--1--3--3-----|-1--1--1-----1-----|
G|-2---------|-2-------|-0-----|-0-----------------------|-2--------2--------|
D|-2---------|-3-------|-2-----|-0-----------------------|-2-----------------|
A|-0---------|-x-------|-3-----|-2-----------------------|-0-----------------|
E|-x---------|-x-------|-x-----|-3-----------------------|-x-----------------|

e|-3--------------|-1--0--3--0-------|
B|-1--1-----0--1--|-2-----0-----3--3-|
G|-2-----2--------|-2-----0----------|
D|-3--------------|-0-----0----------|
A|-x--------------|-x-----2----------|
E|-x--------------|-x-----3----------|

e|-0-----------|-3---------|-0-------|-3--------------------0--|-0----------------0--|
B|-1----1--1---|-1----1-1--|-1----1--|-0--1--3--3--1--3--3-----|-1----1--1-----1-----|
G|-2-----------|-2---------|-0-------|-0-----------------------|-2----------2--------|
D|-2-----------|-3---------|-2-------|-0-----------------------|-2-------------------|
A|-0-----------|-x---------|-3-------|-2-----------------------|-0-------------------|
E|-x-----------|-x---------|-x-------|-3-----------------------|-x-------------------|

e|--3----------------|-1----0--3--------------|-0----1----0----|---1-----|
B|--1----1-----0--1--|-2-------0--3--3--------|-1----1----1----|---1-----|
G|--2-------2--------|-2-------0--------2--2--|-0----0----0----|---0-----|
D|--3----------------|-0-------0--------------|-2----3----2----|---3-----|
A|--x----------------|-x-------2--------------|-3----3----3----|---3-----|
E|--x----------------|-x-------3--------------|-x----x----x----|---x-----|

[Bridge]
e|-3--1--1--1--0--0--0--0--|-3-------|-0--0--0--0--|-3-----------|-0-----3-----|
B|-1-----------1-----------|-0---3---|-1-----------|-0--3--3--3--|-1--1--0--0--|
G|-2-----------2-----------|-0-------|-0-----------|-0-----------|-2-----0-----|
D|-3-----------2-----------|-0-------|-2-----------|-0-----------|-2-----0-----|
A|-x-----------0-----------|-2-------|-3-----------|-2-----------|-0-----2-----|
E|-x-----------x-----------|-3-------|-x-----------|-x-----------|-x-----3-----|

e|-3-----------|-3--0--0-----------|-0--------1--0--|
B|-1--1--0--1--|-0--------3--3--3--|-1--1--1--1--1--|
G|-2-----------|-0-----------------|-0--------2--0--|
D|-3-----------|-0-----------------|-2--------0--2--|
A|-x-----------|-2-----------------|-3--------x--3--|
E|-x-----------|-3-----------------|-x--------x--0--|

e|-3--1--1--1--0--0--0--0--|-3-------|-0--0--0--0--|-3-----------|-0-----3-----|
B|-1-----------1-----------|-0---3---|-1-----------|-0--3--3--3--|-1--1--0--0--|
G|-2-----------2-----------|-0-------|-0-----------|-0-----------|-2-----0-----|
D|-3-----------2-----------|-0-------|-2-----------|-0-----------|-2-----0-----|
A|-x-----------0-----------|-2-------|-3-----------|-2-----------|-0-----2-----|
E|-x-----------x-----------|-3-------|-x-----------|-x-----------|-x-----3-----|

e|-3-----------|-3--0--0-----------|----------------|
B|-1--1--0--1--|-0--------3--3--3--|----------1-----|
G|-2-----------|-0-----------------|-0--0--2-----2--|
D|-3-----------|-0-----------------|----------------|
A|-x-----------|-2-----------------|----------------|
E|-x-----------|-3-----------------|----------------|

[Chorus]
e|-0-----------|-3---------|-0-------|-3--------------------0--|-0----------------0-|
B|-1----1--1---|-1----1-1--|-1----1--|-0--1--3--3--1--3--3-----|-1----1--1-----1----|
G|-2-----------|-2---------|-0-------|-0-----------------------|-2----------2-------|
D|-2-----------|-3---------|-2-------|-0-----------------------|-2------------------|
A|-0-----------|-x---------|-3-------|-2-----------------------|-0------------------|
E|-x-----------|-x---------|-x-------|-3-----------------------|-x------------------|

e|-3----------------|-1----0--3--------------|---0---|-3--0--0--------------|--0--|
B|-1----1-----0--1--|-2-------0--3--3--------|---1---|-1--------3--3--------|--1--|
G|-2-------2--------|-2-------0--------2--2--|---2---|-2--------------2--2--|--0--|
D|-3----------------|-0-------0--------------|---2---|-3--------------------|--2--|
A|-x----------------|-x-------2--------------|---0---|-x--------------------|--3--|
E|-x----------------|-x-------3--------------|---x---|-x--------------------|--x--|

[Outro]
e|-3--0--0--------------|---0----|-3--3--3--3--|---0---|
B|-0--------3--3--------|---1----|-1--1--1--1--|---1---|
G|-0--------------2--2--|---2----|-2--2--2--2--|---0---|
D|-0--------------------|---2----|-3--3--3--3--|---2---|
A|-2--------------------|---0----|-x--x--x--x--|---3---|
E|-3--------------------|---x----|-x--x--x--x--|---x---|

Suggest correction
Give kudos to tab author, rate the tab!
1 2 3 4 5
comments
print report bad tab
guest
You may want to rate the tab now too:
select rating
Wanna post a correction for this tab? Suggest correction