Oops, an error
Loading. Please wait.

Never Once Tab

10,800 views 144 this week
no commentswrite comment
1 2 3 4 5
excellent!
x 5
add to favorites
launch autoscroll
font size
0
reset
how to read this tab
guitar tuner
Autoscroll
slow
fast
+/-
esc
set tempo
stop
Help us to improve Ultimate-Guitar.com Take our survey!
×
Author
Difficulty
Capo
clm12704 2,238
novice
4th fret
Matt Redman 
Never Once 
From "10,000 Reasons" 
Tabbed by thatchadmiller (Twitter) 


Capo 4 

Intro 
G - D - Em - C

Verse 1
G                             D
Standing on this mountaintop, looking just how far we've come
Em                          C
Knowing that for every step You were with us


Verse 2
G                               D
Kneeling on this battle ground, seeing just how much You've done
Em                      C
Knowing every victory is Your power in us


Pre-Chorus
C                              D
Scars and struggles on the way but with joy our hearts can say
G/B                 C
Yes our hearts can say


Chorus 1
G
Never once did we ever walk alone
Em
Never once did You leave us on our own
C       G         Em           D
You are faithful, God, You are faithful


Verse 2
Pre-Chorus
Chorus  (repeat last line)


Bridge
C                              D
Scars and struggles on the way but with joy our hearts can say
Em                D
Never once did we ever walk alone
C                               D
Carried by Your constant grace, held within Your perfect peace
Em                 D/F#
Never once, no, we never walk alone


Chorus


Outro
G
Every step we are breathing in Your grace
Em
Evermore we'll be breathing out Your praise
C       G         Em           D
You are faithful, God, You are faithful (repeat)

Solo (Outro chords)
"You are faithful" part to the end



Lead tabs 
I played all of these in the capo 4 position, but I tabbed the frets out to
their actual positions. When you see an open fret (--0--), that means open 
at the capo on the 4th fret. 


Intro/Verse
    G (B)             D (F#)           Em (G#m)       C (E)
e|--------------------------------------------------------------------------|
B|--------------------------------------------------------------------------|
G|--11-11-8-8-9-9-11--11-11-6-6-8-8-9--8-8-0-0-6-6-8--6--8--0--6------------|
D|--9--9--9-9-9-9-9---0--0--0-0-0-0-0--6-6-6-6-6-6-6------------------------|
A|----------------------------------------------------7--7--7--7------------|
E|--------------------------------------------------------------------------|


Pre Chorus
    C (E)           D (F#)                  G/B (B/Eb)    C (E)
e|--------------------------------------------------7---6-------------------|
B|--9---9---9---9---11----11----11----11----0---0-7---7---9---9---9~~~------|
G|----9---9---9---9----11----11----11----11---0-------------9---9-----------|
D|--------------------------------------------------------------------------|
A|--------------------------------------------------------------------------|
E|--------------------------------------------------------------------------|


Chorus
    G (B)
e|--7---7---7---7---9---9---7---7-------------------------------------------|
B|----7---7---7---7---7---7---7---7-----------------------------------------|
G|--------------------------------------------------------------------------|
D|--------------------------------------------------------------------------|
A|--------------------------------------------------------------------------|
E|--------------------------------------------------------------------------|

   Em (G#m)
e|--7---7---7---7---9---9---7---7-------------------------------------------|
B|----7---7---7---7---7---7---7---7-----------------------------------------|
G|--------------------------------------------------------------------------|
D|--------------------------------------------------------------------------|
A|--------------------------------------------------------------------------|
E|--------------------------------------------------------------------------|

   C (E)        G (B)   Em (G#m)    D (F#)
e|--7---7-7/12--12--11--7---7-7/11--11--9-----------------------------------|
B|----7-------------------7-------------------------------------------------|
G|--------------------------------------------------------------------------|
D|--------------------------------------------------------------------------|
A|--------------------------------------------------------------------------|
E|--------------------------------------------------------------------------|


Solo
    G (B)        Em (G#m)
e|--7~~-9~~-11~~-14~-16~~-18~-19~~------------------------------------------|
B|--------------------------------------------------------------------------|
G|--------------------------------------------------------------------------|
D|--------------------------------------------------------------------------|
A|--------------------------------------------------------------------------|
E|--------------------------------------------------------------------------|



If you have any input or corrections, hit me up on Twitter and let me know
if you have any songs you need help with. God bless!
Suggest correction
What's this?
You can suggest a correction to this tab. Community and Mods will review your correction and vote to approve or reject it.
comments
print report bad tab
guest
You may want to rate the tab now too:
select rating
Please do not post tabs as comments. Select "correction" instead!