Oops, an error
Loading. Please wait.

She Wolf Tab

64 views 3 this week
1 commentread comment
1 2 3 4 5
3 more votes to show rating
add to favorites
launch autoscroll
font size
0
reset
how to read this tab
guitar tuner
Autoscroll
slow
fast
+/-
esc
set tempo
stop
Help us to improve Ultimate-Guitar.com Take our survey!
×
Author
Difficulty
novice
She Wolf
Matt Skiba and the Sekrets 
Kuts (2015)

Standard Tuning


[Intro Riff]

e|---------------------------|-------------------------------|
B|---------------------------|-------------------------------|
G|--------------------9h10p9-|-------------10-9-7-7-9-9b10b9-|
D|-------9h10p9--------------|------9h10p9-------------------|
A|-7h8p7--------7h8p7--------|-7h8p7-------------------------|
E|---------------------------|-------------------------------|

e|---------------------------|--------------------------|
B|---------------------------|--------------------------|
G|--------------------9h10p9-|-------------10-9-7-5-7/9-| 
D|-------9h10p9--------------|------9h10p9--------------|
A|-7h8p7--------7h8p7--------|-7h8p7--------------------|
E|---------------------------|--------------------------|

Alternatively for this intro riff, you can bend the strings instead of doing the hammer-on. 


[Verse 1]

e|-------------------------------------|----------------------------------------|
B|-------------------------------------|----------------------------------------|
G|-------------------------------------|-10-10-10---10-10-10---10-10-10---9-9-9-|
D|-7-7-7---7-7-7---10-10-10---10-10-10-|-10-10-10---10-10-10---10-10-10---9-9-9-|
A|-7-7-7---7-7-7---10-10-10---10-10-10-|-8--8--8----8--8--8----8--8--8----7-7-7-|
E|-5-5-5---5-5-5---8--8--8----8--8--8--|----------------------------------------|

e|-------------------------------------|----------------------------------------|
B|-------------------------------------|----------------------------------------|
G|-------------------------------------|-10-10-10---10-10-10---9-9-9---12-12-12-|
D|-7-7-7---7-7-7---10-10-10---10-10-10-|-10-10-10---10-10-10---9-9-9---12-12-12-|
A|-7-7-7---7-7-7---10-10-10---10-10-10-|-8--8--8----8--8--8----7-7-7---10-10-10-|
E|-5-5-5---5-5-5---8--8--8----8--8--8--|----------------------------------------|(All x2)


[Chorus 1]

e|---------------------------------|---------------------------------|
B|---------------------------------|---------------------------------|
G|-5-5-5-5-5-5-5-5-5-5-5-5-5-5-5-5-|---------------------------------|
D|-5-5-5-5-5-5-5-5-5-5-5-5-5-5-5-5-|-5-5-5-5-5-5-5-5-5-5-5-5-5-5-5-5-|
A|-3-3-3-3-3-3-3-3-3-3-3-3-3-3-3-3-|-5-5-5-5-5-5-5-5-5-5-5-5-5-5-5-5-|
E|---------------------------------|-3-3-3-3-3-3-3-3-3-3-3-3-3-3-3-3-|

e|---------------------------------|---------------------------------|
B|---------------------------------|---------------------------------|
G|---------------------------------|---------------------------------|
D|-7-7-7-7-7-7-7-7-7-7-7-7-7-7-7-7-|-3-3-3-3-3-3-3-3-3-3-3-3-3-3-3-3-|
A|-7-7-7-7-7-7-7-7-7-7-7-7-7-7-7-7-|-3-3-3-3-3-3-3-3-3-3-3-3-3-3-3-3-|
E|-5-5-5-5-5-5-5-5-5-5-5-5-5-5-5-5-|-1-1-1-1-1-1-1-1-1-1-1-1-1-1-1-1-|

e|---------------------------------|---------------------------------|
B|---------------------------------|---------------------------------|
G|-5-5-5-5-5-5-5-5-5-5-5-5-5-5-5-5-|---------------------------------|
D|-5-5-5-5-5-5-5-5-5-5-5-5-5-5-5-5-|-5-5-5-5-5-5-5-5-5-5-5-5-5-5-5-5-|
A|-3-3-3-3-3-3-3-3-3-3-3-3-3-3-3-3-|-5-5-5-5-5-5-5-5-5-5-5-5-5-5-5-5-|
E|---------------------------------|-3-3-3-3-3-3-3-3-3-3-3-3-3-3-3-3-|

e|---------------------------------|---------------------------------|
B|---------------------------------|---------------------------------|
G|---------------------------------|---------------------------------|
D|-7-7-7-7-7-7-7-7-7-7-7-7-7-7-7-7-|-3-3-3-3-3-3-3-3-5-5-5-5-5-5-5-5-|
A|-7-7-7-7-7-7-7-7-7-7-7-7-7-7-7-7-|-3-3-3-3-3-3-3-3-5-5-5-5-5-5-5-5-|
E|-5-5-5-5-5-5-5-5-5-5-5-5-5-5-5-5-|-1-1-1-1-1-1-1-1-3-3-3-3-3-3-3-3-|


[Post-Chorus]

e|---------------------------|-------------------------------|
B|---------------------------|-------------------------------|
G|--------------------9h10p9-|-------------10-9-7-7-9-9b10b9-|
D|-------9h10p9--------------|------9h10p9-------------------|
A|-7h8p7--------7h8p7--------|-7h8p7-------------------------|
E|---------------------------|-------------------------------|

e|---------------------------|--------------------------|
B|---------------------------|--------------------------|
G|--------------------9h10p9-|-------------10-9-7-5-7/9-| 
D|-------9h10p9--------------|------9h10p9--------------|
A|-7h8p7--------7h8p7--------|-7h8p7--------------------|
E|---------------------------|--------------------------|


[Verse 2]

e|-------------------------------------|----------------------------------------|
B|-------------------------------------|----------------------------------------|
G|-------------------------------------|-10-10-10---10-10-10---10-10-10---9-9-9-|
D|-7-7-7---7-7-7---10-10-10---10-10-10-|-10-10-10---10-10-10---10-10-10---9-9-9-|
A|-7-7-7---7-7-7---10-10-10---10-10-10-|-8--8--8----8--8--8----8--8--8----7-7-7-|
E|-5-5-5---5-5-5---8--8--8----8--8--8--|----------------------------------------|

e|-------------------------------------|----------------------------------------|
B|-------------------------------------|----------------------------------------|
G|-------------------------------------|-10-10-10---10-10-10---9-9-9---12-12-12-|
D|-7-7-7---7-7-7---10-10-10---10-10-10-|-10-10-10---10-10-10---9-9-9---12-12-12-|
A|-7-7-7---7-7-7---10-10-10---10-10-10-|-8--8--8----8--8--8----7-7-7---10-10-10-|
E|-5-5-5---5-5-5---8--8--8----8--8--8--|----------------------------------------|(All x2)


[Chorus 2]

e|---------------------------------|---------------------------------|
B|---------------------------------|---------------------------------|
G|-5-5-5-5-5-5-5-5-5-5-5-5-5-5-5-5-|---------------------------------|
D|-5-5-5-5-5-5-5-5-5-5-5-5-5-5-5-5-|-5-5-5-5-5-5-5-5-5-5-5-5-5-5-5-5-|
A|-3-3-3-3-3-3-3-3-3-3-3-3-3-3-3-3-|-5-5-5-5-5-5-5-5-5-5-5-5-5-5-5-5-|
E|---------------------------------|-3-3-3-3-3-3-3-3-3-3-3-3-3-3-3-3-|

e|---------------------------------|---------------------------------|
B|---------------------------------|---------------------------------|
G|---------------------------------|---------------------------------|
D|-7-7-7-7-7-7-7-7-7-7-7-7-7-7-7-7-|-3-3-3-3-3-3-3-3-3-3-3-3-3-3-3-3-|
A|-7-7-7-7-7-7-7-7-7-7-7-7-7-7-7-7-|-3-3-3-3-3-3-3-3-3-3-3-3-3-3-3-3-|
E|-5-5-5-5-5-5-5-5-5-5-5-5-5-5-5-5-|-1-1-1-1-1-1-1-1-1-1-1-1-1-1-1-1-|

e|---------------------------------|---------------------------------|
B|---------------------------------|---------------------------------|
G|-5-5-5-5-5-5-5-5-5-5-5-5-5-5-5-5-|---------------------------------|
D|-5-5-5-5-5-5-5-5-5-5-5-5-5-5-5-5-|-5-5-5-5-5-5-5-5-5-5-5-5-5-5-5-5-|
A|-3-3-3-3-3-3-3-3-3-3-3-3-3-3-3-3-|-5-5-5-5-5-5-5-5-5-5-5-5-5-5-5-5-|
E|---------------------------------|-3-3-3-3-3-3-3-3-3-3-3-3-3-3-3-3-|

e|---------------------------------|---------------------------------|
B|---------------------------------|---------------------------------|
G|---------------------------------|---------------------------------|
D|-7-7-7-7-7-7-7-7-7-7-7-7-7-7-7-7-|-3-3-3-3-3-3-3-3-5-5-5-5-5-5-5-5-|
A|-7-7-7-7-7-7-7-7-7-7-7-7-7-7-7-7-|-3-3-3-3-3-3-3-3-5-5-5-5-5-5-5-5-|
E|-5-5-5-5-5-5-5-5-5-5-5-5-5-5-5-5-|-1-1-1-1-1-1-1-1-3-3-3-3-3-3-3-3-|


[Bridge]

e|-------------------------------------|-------------------------------------------|
B|-------------------------------------|-------------------------------------------|
G|-----------------10-10-10---10-10-10-|-----------------------12-12-12---12-12-12-|
D|-7-7-7---7-7-7---10-10-10---10-10-10-|-10-10-10---10-10-10---12-12-12---12-12-12-|
A|-7-7-7---7-7-7---8--8--8----8--8--8--|-10-10-10---10-10-10---10-10-10---10-10-10-|
E|-5-5-5---5-5-5-----------------------|-8--8--8----8--8--8------------------------|(x3)

e|-------------------------------------|-------------------------------------------|
B|-------------------------------------|-------------------------------------------|
G|-----------------10-10-10---10-10-10-|-12-12-12---12-12-12---12-12-12---12-12-12-|
D|-7-7-7---7-7-7---10-10-10---10-10-10-|-12-12-12---12-12-12---12-12-12---12-12-12-|
A|-7-7-7---7-7-7---8--8--8----8--8--8--|-10-10-10---10-10-10---10-10-10---10-10-10-|
E|-5-5-5---5-5-5-----------------------|-------------------------------------------|

e|-------------------------------------------|
B|-------------------------------------------|
G|-12-12-12---12-12-12---12-12-12---12-12-12-|
D|-12-12-12---12-12-12---12-12-12---12-12-12-|
A|-10-10-10---10-10-10---10-10-10---10-10-10-|
E|-------------------------------------------|


[Chorus 3]

e|---------------------------------|---------------------------------|
B|---------------------------------|---------------------------------|
G|-5-5-5-5-5-5-5-5-5-5-5-5-5-5-5-5-|---------------------------------|
D|-5-5-5-5-5-5-5-5-5-5-5-5-5-5-5-5-|-5-5-5-5-5-5-5-5-5-5-5-5-5-5-5-5-|
A|-3-3-3-3-3-3-3-3-3-3-3-3-3-3-3-3-|-5-5-5-5-5-5-5-5-5-5-5-5-5-5-5-5-|
E|---------------------------------|-3-3-3-3-3-3-3-3-3-3-3-3-3-3-3-3-|

e|---------------------------------|---------------------------------|
B|---------------------------------|---------------------------------|
G|---------------------------------|---------------------------------|
D|-7-7-7-7-7-7-7-7-7-7-7-7-7-7-7-7-|-3-3-3-3-3-3-3-3-3-3-3-3-3-3-3-3-|
A|-7-7-7-7-7-7-7-7-7-7-7-7-7-7-7-7-|-3-3-3-3-3-3-3-3-3-3-3-3-3-3-3-3-|
E|-5-5-5-5-5-5-5-5-5-5-5-5-5-5-5-5-|-1-1-1-1-1-1-1-1-1-1-1-1-1-1-1-1-|

e|---------------------------------|---------------------------------|
B|---------------------------------|---------------------------------|
G|-5-5-5-5-5-5-5-5-5-5-5-5-5-5-5-5-|---------------------------------|
D|-5-5-5-5-5-5-5-5-5-5-5-5-5-5-5-5-|-5-5-5-5-5-5-5-5-5-5-5-5-5-5-5-5-|
A|-3-3-3-3-3-3-3-3-3-3-3-3-3-3-3-3-|-5-5-5-5-5-5-5-5-5-5-5-5-5-5-5-5-|
E|---------------------------------|-3-3-3-3-3-3-3-3-3-3-3-3-3-3-3-3-|

e|---------------------------------|---------------------------------|
B|---------------------------------|---------------------------------|
G|---------------------------------|---------------------------------|
D|-7-7-7-7-7-7-7-7-7-7-7-7-7-7-7-7-|-3-3-3-3-3-3-3-3-5-5-5-5-5-5-5-5-|
A|-7-7-7-7-7-7-7-7-7-7-7-7-7-7-7-7-|-3-3-3-3-3-3-3-3-5-5-5-5-5-5-5-5-|
E|-5-5-5-5-5-5-5-5-5-5-5-5-5-5-5-5-|-1-1-1-1-1-1-1-1-3-3-3-3-3-3-3-3-|


[Outro]

e|---|
B|---|
G|-5-|
D|-5-|
A|-3-|
E|---|


***********************************

| b   Bend
| h   Hammer On
| p   Pull Off
| /   Slide Up

***********************************

Suggest correction
Give kudos to tab author, rate the tab!
1 2 3 4 5
comments
print report bad tab
1 comment total.
0 reply
otnir8492 10 Oct 03, 2016 11:51 PM

thank you so much man your a lifesaver

guest
You may want to rate the tab now too:
select rating
Wanna post a correction for this tab? Suggest correction