Oops, an error
Loading. Please wait.

Up All Night intro tab

1,297 views 1 this week
3 commentsread comments
1 2 3 4 5
x 3
add to favorites
×
Save as Personal and add changes to this tab that will be seen only by you. Learn more ›
×
You can save this tab as Personal to edit and correct it or add notes. All changes will be seen only by you. Learn more »
launch autoscroll
font size
0
reset
how to read this tab
guitar tuner
edit
Autoscroll
slow
fast
+/-
esc
set tempo
stop
Author
Difficulty
Artist: Matt Willis
Song: Up All Night
Album: Don't Let It Go To Waste
Tuning: Standard (EADGBe)
Tabber: Dan Fallows (Sick of you)

Intro
e|----------------------------------|
B|------------5--------------5--7---|
G|----6---6-----6----6---6----------|
D|--4---4---4------4---4---4--------| Repeat as needed
A|----------------------------------|
E|----------------------------------|

Play over Intro, strum once each
e|-----------|
B|-----------|
G|-----6--4--| x 2
D|--4--6--4--|
A|--4--4--2--|
E|--2--------|

Part after Intro strum once each, very faintly but they are there,
sounds like a piano, but it fits so woohoo!
e|-----------|
B|-----------|
G|-----6--4--| x 5
D|--4--6--4--|
A|--4--4--2--|
E|--2--------|

Pre chorus (Repeat until chorus)
Play the end part after he says ''Morning!!''
e|--------------|-----|
B|--------------|-----|
G|------66--44--|--9--|
D|--44--66--44--|--9--| Repeat as needed
A|--44--44--22--|--7--|
E|--22----------|-----|

Chorus (Play intro over this)
e|--------------------|
B|--------------------|
G|--------6666--4444--|
D|--4444--6666--4444--| Repeat as needed
A|--4444--4444--2222--|
E|--2222--------------|

I'm stuck for which chorus sounds better ^ that one, or...
e|--------------------|
B|--------------------|
G|--------9999--4444--| < This one, you decide.
D|--4444--9999--4444--|
A|--4444--7777--2222--|
E|--2222--------------|

Intro riff again
e|----------------------------------|
B|------------5--------------5--7---|
G|----6---6-----6----6---6----------| Repeat as needed
D|--4---4---4------4---4---4--------|
A|----------------------------------|
E|----------------------------------|

Verse (strum once each, very faintly but they are there,
sounds like a piano, but it fits so woohoo!)
e|-----------|
B|-----------|
G|-----6--4--| x 5
D|--4--6--4--|
A|--4--4--2--|
E|--2--------|

Pre chorus (Repeat until chorus)
Play the end part after he says ''Crazy!!''
e|--------------|-----|
B|--------------|-----|
G|------66--44--|--9--|
D|--44--66--44--|--9--| Repeat as needed
A|--44--44--22--|--7--|
E|--22----------|-----|

Chorus (Play intro over this)
e|--------------------|
B|--------------------|
G|--------6666--4444--|
D|--4444--6666--4444--| Repeat as needed
A|--4444--4444--2222--|
E|--2222--------------|

Intro riff again
e|----------------------------------|
B|------------5--------------5--7---|
G|----6---6-----6----6---6----------| Repeat as needed
D|--4---4---4------4---4---4--------|
A|----------------------------------|
E|----------------------------------|

>>>>Solo (working on) (play chorus over this)<<<<


Chorus after solo (Play intro over this)
e|--------------------|
B|--------------------|
G|--------6666--4444--|
D|--4444--6666--4444--|
A|--4444--4444--2222--|
E|--2222--------------|

Repeat that ^ chorus until song finishes.

Theres some build up to that 'end on' chord, but i can't be bothered figure it out, it's 
and i'm knackerd!

End on
e|------|
B|------|
G|------|
D|--4~--|
A|--4~--|
E|--2~--|

I know there are a few tweaks to be made, but i gave it a try!

Merry Christmas!
Suggest correction
Creating personal tab
Creating personal tab
You can edit any tab online and save it as your Personal.

You can edit, replace or remove any tab part or add personal notes – all changes will be seen only by you.

Personal tabs can be accessed anytime from any device, even offline.
Learn more »
Give kudos to tab author, rate the tab!
1 2 3 4 5
comments
print report bad tab
3 comments total.
0 reply
Jo shtehpho 167 Aug 12, 2007 12:51 PM

you said it's only the intro but it's the whole song amazing tab

0 reply
Secret7 84 Mar 29, 2009 06:44 AM

I really like this one! :D

0 reply
Secret7 84 Mar 29, 2009 06:46 AM

Too sad you don't have the solo though "/

guest
You may want to rate the tab now too:
select rating
Wanna post a correction for this tab? Suggest correction