Oops, an error
Loading. Please wait.

Etude In A Min Tab

3,494 views 1 this week
no commentswrite comment
1 2 3 4 5
1 last vote to show rating
add to favorites
launch autoscroll
font size
0
reset
how to read this tab
guitar tuner
×
Best way to learn
"Etude In A Min"
Autoscroll
slow
fast
+/-
esc
set tempo
stop
Etude in A min  By M. Carcassi

Tabbed by Carl Brown (cbrown@ciit.org)

This is a nice little excercise, play evenly all as eighth notes
Note the peddle notes (E as V-chord) of Am, and some dissonant parts that
could be 'Malmsteined' on electric...
         
E----||----0----0----0---0-|-------0-0-0-0-0-|
B----||----------------0---|-----1-----------|
G----||-2----1----2--------|---2-------------|
D--2-||--------------------|-----------------|
A----||--------------------|-0---------------|
E----||--------------------|-----------------|

   
E---------0-0-0-0-0-|---------0-0---|
B-------0-----------|-------1-------|
G-----1-------------|----2----------|
D-------------------|-------------2-|
A-------------------|-0-------------|
E--0----------------|---------------|


    
E-----0----0----0---0-|-----------0-0-0-0-0-|
B-----------------0---|--------1------------|
G--2----1----2--------|-----2---------------|
D---------------------|---------------------|
A---------------------|--0------------------|
E---------------------|---------------------|

E-------------------|--------0-0--||
B---------0-0-0-0-0-|------0------||
G------2------------|----1--------||
D----1--------------|-------------|| Repeat
A--2----------------|-------------|| bars 1-8
E-------------------|--0----------||



E-||--------------------|--------0-0-0-0-0--|
B-||--------------------|------1------------|
G-||------0---0---0---0-|----0--------------|
D-||----------------0---|--2----------------|
A-||----3---2---3-------|-------------------|
E-||--3-----------------|-------------------|

E---------3-3-3-3-3--|
B-------2------------|
G-----2--------------|
D--------------------|
A--0-----------------|
E--------------------|


E--------1------1--|----0---0---0---0-|-------0-0-0-0-0-|
B------3------3----|--------------0---|-----1-----------|
G----2------2------|--2---1---2-------|---2-------------|
D--0------0--------|------------------|-----------------|
A------------------|------------------|-0---------------|
E------------------|------------------|-----------------|


First ending

E--------0------0--|--------0-0---||
B------0------3----|------1-------||
G----1------1------|----2---------||    repeat
D------------------|------------2-|| (start @ bar 9)
A--0------0--------|--0-----------||
E------------------|--------------||


Second ending

E--------5-------4--|--------0-5--||
B------3-------3----|------1------||
G----4-------4------|-------------||
D-------------------|----2--------||
A-------------------|--0----------||
E--0-------0--------|-------------||



-- 
Carl Brown  (cbrown@ciit.org)
Chemical Industry Institute of Toxicology
Research Triangle Park, NC
Suggest correction
Give kudos to tab author, rate the tab!
1 2 3 4 5
comments
print report bad tab
guest
You may want to rate the tab now too:
select rating
Wanna post a correction for this tab? Suggest correction