Oops, an error
Loading. Please wait.

Op 60 Study No 16 In F Tab

923 views 6 this week
no commentswrite comment
1 2 3 4 5
please rate
add to favorites
launch autoscroll
font size
0
reset
how to read this tab
guitar tuner
Autoscroll
slow
fast
+/-
esc
set tempo
stop
Help us to improve Ultimate-Guitar.com Take our survey!
×
Author
Carcassi, etude n.16, op.60. Time signature 4:4
Tab: Francisco Galera

Andante
   |mf    |     |      |      |>    |     |    |      |      |     |     |
E|-1==========--1------1----|-1=========--0---------|-3------------3-----3----|
B|-----1--1--1-----1------1-|----1--1--1----1--1--1-|-----1--1--1-----1-----1-|
G|*----2--2--2-----2------2-|----3--3--3----3--3--3-|-----3--3--3-----3-----3-|
D|*-------------------------|-----------------------|-------------------------|
A|--------------------------|-----------------------|-------------------------|
E|--------------------------|-----------------------|-------------------------|
   1   1                      1  1                    4   1
       2                         3                        3

   |>     |     |      |      |f    |     |    |      |      |     |     |
E|-3------------1-----------|-5-----------5----5----|-5------------4----------|
B|-----1--1--1-----1---1--1-|-----------------------|-----3--3--3-----3--3--3-|
G|-----2--2--2-----2---2--2-|----5--5--5----5-----5-|-------------------------|
D|--------------------------|----3--3--3----3-----3-|-----2--2--2-----2--2--2-|
A|--------------------------|-----------------------|-------------------------|
E|--------------------------|-----------------------|-------------------------|
   4   1        1             4  3                    4   2
       2                         1                        1

   |mf    |  dim|      |      |p    |    |    |       |mf   |     |     |
E|-8------------7-----------|-7----------5----------|-5-----------5-----5-----|
B|------------------6--9----|-----------------------|-------------------------|
G|-----9--9--9------------7-|----7--7--7---5--5--5-*|*---5--5--5-----5-----5--|
D|-----7--7--7------0-------|----6--6--6---7--7--7-*|*---3--3--3-----3-----3--|
A|------------------------7-|-----------------------|-------------------------|
E|--------------------------|-----------------------|-------------------------|
   2   3        2             4  3       1 1          4  3
       1                          2         3             1

   B2.....................
   |    |     |      |      |     |cresc|    |      |  rite|nuto   |     |
E|-5----------3-----------|-1-----------0---------|-1--------------0----------|
B|---2--2--2-----2---2--2-|------------------3----|----3---3---3------2--2--2-|
G|------------------------|----2--2--2----3-----4-|---------------------------|
D|---2--2--2-----2---2--2-|----0--0--0------------|---------------------------|
A|------------------------|-----------------------|----0---0---0------0--0--0-|
E|------------------------|---------------3-----4-|---------------------------|
   4          2             1  2          4  2  4   1  3              2
                                          3     3

                                                        B8....................
   |    a|tempo|    |     |>    |     |      |      |      |       |     |
E|-1-----------1----1---|-2-----------3-----------|-10-------------10----10---|
B|----1--1--1----1----1-|----1--1--1-----1---1--1-|---------------------------|
G|----2--2--2----2----2-|----3--3--3-----3---3--3-|----9---9---9------9-----9-|
D|----------------------|-------------------------|----8---8---8------8-----8-|
A|----------------------|-------------------------|---------------------------|
E|----------------------|-------------------------|---------------------------|
                                                     4 2
                                                       1

................B6.......   B5................................................
   |     |     |     |      |     |     |     |      |     |      |      |
E|-10----------8----------|-7-----------6-----6----|-6------------5-----------|
B|----------------6--6--6-|----6--6--6-----5-----5-|----5--5---5-----6---6--6-|
G|----9--9--9-------------|----------------5-----5-|----6--6---6-----7---7--7-|
D|----8--8--8-----7--7--7-|----5--5--5-------------|--------------------------|
A|------------------------|------------------------|--------------------------|
E|------------------------|------------------------|--------------------------|
               4  1         4  2        3  1         3  1            2
                  2            1           1            2            3

                           1......................   2.......................
   |     |     | dim |      |     |     |     |       |      |      |     |
E|-3----------------------|-------------------------|------------------------||
B|-------------3-----5----|-8-----------6-----------|-8------------(6--------||
G|----0--0--0-----0-----3-|------------------------*|------------------------||
D|------------------------|----8--8--8-----7--7--7-*|-----8--8---8-)7--------||
A|----1--1--1-----1-----3-|----------------8--8--8--|--------------(8--------||
E|------------------------|----8--8--8--------------|-----8--8---8-----------||
   4  1        4  1  4  2   4  3        1  2          4   3          1
                        1      2           3              2          2
                                                                     3
Suggest correction
Give kudos to tab author, rate the tab!
1 2 3 4 5
comments
print report bad tab
guest
You may want to rate the tab now too:
select rating
Please do not post tabs as comments. Select "correction" instead!