Oops, an error
Loading. Please wait.

Somewhere Down There bass

43 views 1 this week
no commentswrite comment
1 2 3 4 5
3 more votes to show rating
add to favorites
×
Save as Personal and add changes to this tab that will be seen only by you. Learn more ›
×
You can save this tab as Personal to edit and correct it or add notes. All changes will be seen only by you. Learn more »
launch autoscroll
font size
0
reset
guitar tuner
edit
Autoscroll
slow
fast
+/-
esc
set tempo
stop
Somewhere Down There by Matthew Connor
From his debut album, Farewell Motel
Tabbed by Norman


{intro}
G|-----------------------------------------|
D|-----------------------------------------|
A|--------------------6--6-5--5-3--3-1-3-5-|
E|-----------------------------------------|


{verse one}
The stars....            The moon....
G|--------------------------------------------|
D|--------------------------------------------|
A|-6--6------3----3--3-1-----------6--6---3-5-|
E|------3--3----3--------4--4-6--6------6-----|

I'm parked...          I got no place...     ..below...           As she sings...
G|------------------------------------------------------------------------------------------|
D|---------------------------------------------------------1--------------------------------|
A|-6--6------3----3--3-1-----------6----7--7-/-3------1--1----1--------------1-3----1-3-3-1-|
E|------3--3----3--------4--4-6--6----8----------1--1-----------4--3-4--4-6-------3---------|

  I......                I don't know...
G|-------------------------------------------|
D|------6--6----------------------1--1-------|
A|-----------6----6--6/------1--1------1-3-5-|
E|-4--4---------6-------1--1-----------------|


{verse two}
Somewhere...             It's silently...
G|--------------------------------------------|
D|--------------------------------------------|
A|-6--6------3----3--3-1-----------6--6---3-5-|
E|------3--3----3--------4--4-6--6------6-----|

And there's a...         Down the street...    ..up here's       The train....
G|------------------------------------------------------------------------------------------|
D|---------------------------------------------------------1--------------------------------|
A|-6--6------3----3--3-1-----------6----7--7-/-3------1--1----1--------------1-3----1-3-3-1-|
E|------3--3----3--------4--4-6--6----8----------1--1-----------4--3-4--4-6-------3---------|

  I.........         I don't know...
G|-------------------------------------|
D|----6------------------8-------------|
A|-------6----6-6-7-8--8------6--6-6-5-|
E|-4--------6---------------6----------|


{bridge}
I used to know just who I was.... back when I loved you...
G|----------------------------------------------------------|
D|----------------------------------------------------------|
A|----------------------------------------------------------|
E|----------------------------------------------------------|

On second thought, well, maybe not.... though I never needed to.....
G|--------------------------------------------------------------------|
D|--------------------------------------------------------------------|
A|--------------------------------------------------------------1-3-5-|
E|--------------------------------------------------------------------|


{verse three}
Cause I...               That used to...
G|--------------------------------------------|
D|--------------------------------------------|
A|-6--6------3----3--3-1-----------6--6---3-5-|
E|------3--3----3--------4--4-6--6------6-----|

I'm not my...              At least...           day I woke...               damn...
G|----------------------------------------------------------------------------------------|
D|---------------------------------------------------------1------------------------------|
A|-6--6------3----3--3-1-----------6----7--7-/-3------1--1----1--------------3----1-3-3-1-|
E|------3--3----3--------4--4-6--6----8----------1--1-----------4--3-4--4-6-----3---------|

Cause I...          I don't know...
G|--------------------------------------|
D|--------------------------1----1--1-0-|
A|-----6----6--6/------1--1----1--------|
E|-4------6-------1--1------------------|


{bridge}
  I used...                                On second...                     too...
G|-----------------------------------------------------------------------------------|
D|------------6-----------------------------1-3-5----------6-----7--7-8-10/-8--8-----|
A|-3-------/6----8--8--8-6-5-3-1--1--1-2-3---------3----/6----8------------------8---|
E|------4--------------------------------------------4-----------------------------6-|


{verse four}
'Cause everywhere I used to go... All I saw was open doors
G|----------------------------------------------------------|
D|----------------------------------------------------------|
A|----------------------------------------------------------|
E|----------------------------------------------------------|

And every time I turned around... there would be one more
G|----------------------------------------------------------|
D|----------------------------------------------------------|
A|----------------------------------------------------------|
E|----------------------------------------------------------|

Yes, but now it seems that they're all closing.... and every night I hear one more slam
G|---------------------/10-8------------------------------------------------------------------|
D|-----------/10-8---------------------5-6-8-5-6----------------------------------------------|
A|--------8--------------------------------------6/-----------------------------------1-3-3-1-|
E|-----------------------------------------------------4-----------4-6----8-------/-3---------|

'Cause I.......               I don't know who I am
G|------------------------------------------------------------|
D|----------6--6----------------------------------------------|
A|---------------6--x-6--6/-3-----------1------1-3-----3--3-1-|
E|-----4--4-------------------1----------------------3--------|

No, I........              I don't know who I am
G|-------------------------------------------------|
D|-----6--6---------------------------------1------|
A|----------6--x-6--6/-3------------1-----1--------|
E|--4--------------------1-------------------------|

            
            
Suggest correction
Creating personal tab
Creating personal tab
You can edit any tab online and save it as your Personal.

You can edit, replace or remove any tab part or add personal notes – all changes will be seen only by you.

Personal tabs can be accessed anytime from any device, even offline.
Learn more »
Give kudos to tab author, rate the tab!
1 2 3 4 5
comments
print report bad tab
guest
You may want to rate the tab now too:
select rating
Wanna post a correction for this tab? Suggest correction