Oops, an error
Loading. Please wait.

99 Of Us Is Failure Bass Tab

230 views 1 this week
no commentswrite comment
1 2 3 4 5
3 more votes to show rating
add to favorites
launch autoscroll
font size
0
reset
guitar tuner
Autoscroll
slow
fast
+/-
esc
set tempo
stop
Help us to improve Ultimate-Guitar.com Take our survey!
×
99% of Us is Failure
Minus a half step (D# G# C# F#)
Tabbed by Shane Horton (anoceanpearl@gmail.com)

Verse 1 (styrofoam...)

|-----|-----|------|-------|-----|-----|------|-----------------------|
|-----|-----|------|-------|-----|-----|------|-----------------------|
|--4--|--7--|--12--|--11-9-|--4--|--7--|--12--|--11-11-11--9-9-9--9-9-|
|-----|-----|------|-------|-----|-----|------|-----------------------|

|----------------------|---------------------|
|----------------------|---------------------|
|-12--12-12--11--11-11-|-2--2--2--2-2-2--2-2-|
|----------------------|---------------------|

|----------------------|---------------------|-----------------------------|
|----------------------|---------------------|-----------------------------|
|-12--12-12--11--11-11-|-2--2--2--2-2-2--2-2-|/14--14--14--14-14-14--14-14-|
|----------------------|---------------------|-----------------------------|

Chorus

|---------------------|-----------------------------|---------------------|---------------------|
|---------------------|-----------------------------|---------------------|---------------------|
|---------------------|-12--12--12-12-12--12--12-12-|-7--7--7-7-7--7--7-7-|-2--2--2-2-2--2--2-2-|
|-2--2--2-2-2--2--2-2-|-----------------------------|---------------------|---------------------|

|---------------------|-----------------------------|---------------------|---------------------|
|---------------------|-----------------------------|---------------------|---------------------|
|---------------------|-12--12--12-12-12--12--12-12-|-7--7--7-7-7--7--7-7-|-2--2--2-2-2--2--2-2-|
|-2--2--2-2-2--2--2-2-|-----------------------------|---------------------|---------------------|

|----------------------|---------------------|----------------------|-----|
|----------------------|---------------------|----------------------|-----|
|-12--12-12--11--11-11-|-2--2--2--2-2-2--2-2-|-12--12-12--11--11-11-|--2--|
|----------------------|---------------------|----------------------|-----|

Verse 2 (hide behind...)

|----------------------|----------------------|---------------------|
|----------------------|----------------------|---------------------|
|-11-11-11--9-9-9--7-7-|-12--12-12--11--11-11-|-2--2--2--2-2-2--2-2-|
|----------------------|----------------------|---------------------|

|----------------------|---------------------|
|----------------------|---------------------|
|-12--12-12--11--11-11-|-2--2--2--2-2-2--2-2-|
|----------------------|---------------------|

|-----|-----|------|--------|-----|-----|------|----------------------|
|-----|-----|------|--------|-----|-----|------|----------------------|
|--4--|--7--|--12--|--11-9--|--4--|--7--|--12--|-11-11-11--9-9-9--9-9-|
|-----|-----|------|--------|-----|-----|------|----------------------|

|----------------------|---------------------|
|----------------------|---------------------|
|-12--12-12--11--11-11-|-2--2--2--2-2-2--2-2-|
|----------------------|---------------------|

|----------------------|---------------------|-----------------------------|
|----------------------|---------------------|-----------------------------|
|-12--12-12--11--11-11-|-2--2--2--2-2-2--2-2-|/14--14--14--14-14-14--14-14-|
|----------------------|---------------------|-----------------------------|

Chorus

|---------------------|-----------------------------|---------------------|---------------------|
|---------------------|-----------------------------|---------------------|---------------------|
|---------------------|-12--12--12-12-12--12--12-12-|-7--7--7-7-7--7--7-7-|-2--2--2-2-2--2--2-2-|
|-2--2--2-2-2--2--2-2-|-----------------------------|---------------------|---------------------|

|---------------------|-----------------------------|---------------------|---------------------|
|---------------------|-----------------------------|---------------------|---------------------|
|---------------------|-12--12--12-12-12--12--12-12-|-7--7--7-7-7--7--7-7-|-2--2--2-2-2--2--2-2-|
|-2--2--2-2-2--2--2-2-|-----------------------------|---------------------|---------------------|

|----------------------|---------------------|----------------------|-----|
|----------------------|---------------------|----------------------|-----|
|-12--12-12--11--11-11-|-2--2--2--2-2-2--2-2-|-12--12-12--11--11-11-|--2--|
|----------------------|---------------------|----------------------|-----|
Suggest correction
Give kudos to tab author, rate the tab!
1 2 3 4 5
comments
print report bad tab
guest
You may want to rate the tab now too:
select rating
Wanna post a correction for this tab? Suggest correction